Cifra Club

Black Friday Cifra Club

A Felicidade da Salvação

Harpa Cristã

Cifra: Principal (violão e guitarra)
tom: A
E|----10-------------0-1-|-3--------------|-0-1-0-------3-4-|-----------------|
B|-13----13-10-------1-1-|-3---3---3----3-|-1-1-1-3---5-5-5-|-10-----------10-|
G|-10-10-10-10-12-10-0-2-|-0---5---3----0-|-0-2-0-5-5-5-3-3-|-10-----------10-|
D|----------10-10-10-3-3-|-----4---5------|-------3-2-5-----|-10-----------10-|
A|-12-13-12----13-12-----|-1---0----------|-3-3-3-3-3-3---3-|-----------------|
E|-13-13-13-13-13-13-----|---------3----6-|-------------6---|-13-----------13-|

E|----10-------------0-----|-----0-----------|-3-5-3-----------|
B|-13----13-10-------------|-10--------------|-------6-5-3-5-6-|
G|-10-10-10-10-12-10-0--10-|-9---12--10---10-|-4-4-4-4-4-4-4-4-|
D|----------10-10-10-10-10-|---------12---0--|-3-3-3-3-5-5-3-3-|
A|-12-13-12----13-12----12-|-13--13--13---12-|-----------------|
E|-13-13-13-13-13-13-13-13-|-9---9---10---13-|-3-3-3-3-3-3-3-3-|

E|-------------------|-------------10----------|-6--------------|
B|-8-----------------|-------10-13----13-10----|-5--------------|
G|---------0---0--0--|----10-10-10-10-10-10-10-|-5------------5-|
D|-8-----------10-10-|-12-10-10----------10----|----------------|
A|-7---8---7---13-13-|-12-12----12-13-12----12-|----------------|
E|-8---10------------|-13-13-13-13-13-13-13-13-|-8--------------|

E|---0-0--0--12-10-------|-----------------|-------13-13---------|
B|-5-8-11-13-8-----13-11-|-10-----------11-|-13-13-------10---10-|
G|-5-0-0--0-----12-12-12-|-10-----------10-|-10-10-10-10-10---10-|
D|-5---------10-10-10-10-|-10--------------|----------10-10---12-|
A|-----------------------|--------------13-|-12-12-12------------|
E|-8-8-8--8--8--10-12-12-|-13-----------10-|-13-13-13-13-13------|

E|-------6--6--10---10-|-12-10-8-----------|--------------|
B|-8--8--6--6--6----6--|----------11-10--8-|--------------|
G|-10-10-7--7----------|-9--10-9--9--9---9-|-10-----------|
D|-12-12-------8-------|-------10-12-10--8-|-10-----------|
A|-13-13-10-10-10---10-|-10-10-------------|-12-----------|
E|------------------6--|-8--8--8--8--8---8-|-13-----------|

00:00 / 00:00
Outros vídeos desta música
Repetir
Outros vídeos desta música
Compositor não encontrado.
Colaboração e revisão:
  • Helon Oliveira
4.441 exibições
    • ½ Tom
    • A
    • Bb
    • B
    • C
    • Db
    • D
    • Eb
    • E
    • F
    • F#
    • G
    • Ab
  • Adicionar à lista

    0 comentários

    Ver todos os comentários

    Entre para oCifra Club PRO

    Tenha acesso a benefícios exclusivos no App e no Site

    • Chega de anúncios

    • Prioridade de compra em lançamentos

    • Mais recursos no app do Afinador

    • Atendimento Prioritário

    • Descontos nos produtos Cifra Club

    • Ajude a produzir mais conteúdo

    00:00 / 00:00

    Cifra Club Pro

    Aproveite o Cifra Club com benefícios exclusivos e sem anúncios
    Cifra Club Pro
    Aproveite o Cifra Club com benefícios exclusivos e sem anúncios
    OK