Cifra Club

Black Friday Cifra Club

A Fonte Salvadora

Harpa Cristã

Cifra: Principal (violão e guitarra)
tom: G
E|-8---------8------3-|-1------------|-1---0-1-----------|--------------|
B|-10--10-11-10--10-1-|-1-------1----|-1---1-1-8---11-10-|-8------------|
G|-----10-12-----10-3-|-2-------2----|-2---0-2-9---12-10-|-9------------|
D|-10--10-10-10--10-3-|-3-------3----|-3---3-3-10--10-10-|-10-----------|
A|-8---8--8--8---8----|--------------|-------------7--8--|--------------|
E|--------------------|--------------|---------8---------|-8------------|

E|-8---------8------3-|-1------------|-1---0-1-3---5-3-|--------------|
B|-----10-11-10--10-1-|-1-------1----|-1---1-1-5---6-5-|-6------------|
G|-10--10-12-----10-3-|-2-------2----|-2---0-2-3---5-3-|-5------------|
D|-7---10-10-10--10-3-|-3-------3----|-3---3-3---------|-7------------|
A|-8---8--8--8---8----|--------------|---------3---3-3-|-8------------|
E|--------------------|--------------|-----------------|--------------|

E|-6---6-6-6----|-5---5-5-5----|-10--10-10-8---6-5-|-----7-7-8----|
B|-6---6-6-6----|-6---6-6-6----|-6---6--6--6---5-6-|-8---6-6-5----|
G|-7---7-7-7----|-5---5-5-5----|-----------5---5-5-|-5---0-0------|
D|--------------|--------------|-8---8--8--7---5---|-----0-0-5----|
A|--------------|-8---8-8-8----|-----------------8-|-7------------|
E|-6---6-6-6----|--------------|-------------------|---------8----|

E|-8---5-6-8------3-|-1------------|-1---0-1-3---5-3-|-1------------|
B|-6---6-8-10--10-1-|-1-------1----|-1---1-1-5---6-5-|-1------------|
G|-----5-5-----10-3-|-2-------2----|-2---0-2-3---5-3-|-2------------|
D|-7-------10--10-3-|-3-------3----|-3---3-3---------|-3------------|
A|-8---8-8-8---8----|--------------|---------3---3-3-|--------------|
E|------------------|--------------|-----------------|--------------|

00:00 / 00:00
Outros vídeos desta música
Repetir
Outros vídeos desta música
Compositor não encontrado.
Colaboração e revisão:
  • Helon Oliveira
6.282 exibições
    • ½ Tom
    • A
    • Bb
    • B
    • C
    • Db
    • D
    • Eb
    • E
    • F
    • F#
    • G
    • Ab
  • Adicionar à lista

    0 comentários

    Ver todos os comentários

    Entre para oCifra Club PRO

    Tenha acesso a benefícios exclusivos no App e no Site

    • Chega de anúncios

    • Prioridade de compra em lançamentos

    • Mais recursos no app do Afinador

    • Atendimento Prioritário

    • Descontos nos produtos Cifra Club

    • Ajude a produzir mais conteúdo

    00:00 / 00:00

    Cifra Club Pro

    Aproveite o Cifra Club com benefícios exclusivos e sem anúncios
    Cifra Club Pro
    Aproveite o Cifra Club com benefícios exclusivos e sem anúncios
    OK