Cifra Club

Black Friday Cifra Club

Ao Culto Não Faltar

Harpa Cristã

Cifra: Principal (violão e guitarra)
tom: Eb
E|---------------|-11------------|---------------|-----10--8-10-|-11---6--6-6-|
B|------11-11-11-|-----11--11-8--|-6----9--9--9--|-----6---9-9--|-8----4--4-4-|
G|------0--0--0--|-12--12--8--8--|-7----10-10-10-|--------------|------0--0-0-|
D|------13-13-13-|-----13--8--8--|-8----8--8--8--|-----8---8-8--|-8-----------|
A|---------------|-13------10----|---------------|--------------|------6--6-6-|
E|------11-11-11-|-11--11-----11-|-6----6--6--6--|-6---6---6-6--|-11----------|

E|-6---3---4-6-|-8----8----8-|-6-3-1---4-|-3--------|
B|-4---4---4-4-|-4----4----4-|-4-4-3---6-|-4--------|
G|-0---3-----0-|-------------|-0-3-3---3-|-3--------|
D|---------6---|-6----6----6-|-----------|----------|
A|-6-----------|-------------|-----1-----|-6--------|
E|---------8-6-|-4----4--4-4-|-6-6-----6-|----------|

00:00 / 00:00
Outros vídeos desta música
Repetir
Outros vídeos desta música
Compositor não encontrado.
Colaboração e revisão:
  • Helon Oliveira
2.060 exibições
    • ½ Tom
    • A
    • Bb
    • B
    • C
    • Db
    • D
    • Eb
    • E
    • F
    • F#
    • G
    • Ab
  • Adicionar à lista

    0 comentários

    Ver todos os comentários

    Entre para oCifra Club PRO

    Tenha acesso a benefícios exclusivos no App e no Site

    • Chega de anúncios

    • Prioridade de compra em lançamentos

    • Mais recursos no app do Afinador

    • Atendimento Prioritário

    • Descontos nos produtos Cifra Club

    • Ajude a produzir mais conteúdo

    00:00 / 00:00

    Cifra Club Pro

    Aproveite o Cifra Club com benefícios exclusivos e sem anúncios
    Cifra Club Pro
    Aproveite o Cifra Club com benefícios exclusivos e sem anúncios
    OK