Cifra Club

Black Friday Cifra Club

Chegai Para Adorar

Harpa Cristã

Cifra: Principal (violão e guitarra)
tom: F
E|-------------8-|-8-------6------|----------------|-----0---------|
B|-------------6-|-6-------6---10-|-10-------------|-6-----------5-|
G|---------------|---------7---10-|-10------12--10-|-0-------7---5-|
D|-------------7-|-7-----------10-|-10------10--10-|-8-------8---8-|
A|-------------8-|-8-------8------|---------13--12-|---------------|
E|---------------|-------------13-|-13------13--13-|-8-------8---8-|

E|---------------|-6-----------10-|----------------|----------------|
B|-6-----------6-|-6-------10-----|-13------10-----|-8-------10--12-|
G|-5-------------|-7-------10--10-|-10------10--10-|-9-------10--10-|
D|-7-----------7-|---------10-----|---------10--10-|-10------10--0--|
A|-8-----------8-|-8-----------13-|-12----------0--|---------8---10-|
E|---------------|---------13--13-|-13------13-----|-8--------------|

E|-8-----------8-|-8--------------|----------------|-----0---------|
B|---------------|---------11--10-|-10-------------|-6-----------5-|
G|-9-----------9-|-10------10--10-|-10------12--10-|-0-------7---5-|
D|-------------8-|---------12--10-|-10------10--10-|-8-------8---8-|
A|-10------------|-12-------------|---------13--12-|---------------|
E|-8-----------8-|-13------13--13-|-13------13--13-|-8-------8---8-|

E|---------------|-6-------5---10-|-8-------5-----|-5-------5----3-|
B|-6-----------6-|-6-------6---6--|-6-------6---6-|-6-------5----5-|
G|-5-------------|-7-------5------|---------------|-5-------5----3-|
D|-7-----------7-|-------------8--|-7-----------7-|----------------|
A|-8-----------8-|-8-------8---8--|-8-------8---5-|--------------3-|
E|---------------|----------------|---------------|-8-------8------|

E|--------------|
B|-6------------|
G|--------------|
D|-7------------|
A|-8------------|
E|--------------|

00:00 / 00:00
Outros vídeos desta música
Repetir
Outros vídeos desta música
Compositor não encontrado.
Colaboração e revisão:
  • Helon Oliveira
1.583 exibições
    • ½ Tom
    • A
    • Bb
    • B
    • C
    • Db
    • D
    • Eb
    • E
    • F
    • F#
    • G
    • Ab
  • Adicionar à lista

    0 comentários

    Ver todos os comentários

    Entre para oCifra Club PRO

    Tenha acesso a benefícios exclusivos no App e no Site

    • Chega de anúncios

    • Prioridade de compra em lançamentos

    • Mais recursos no app do Afinador

    • Atendimento Prioritário

    • Descontos nos produtos Cifra Club

    • Ajude a produzir mais conteúdo

    00:00 / 00:00

    Cifra Club Pro

    Aproveite o Cifra Club com benefícios exclusivos e sem anúncios
    Cifra Club Pro
    Aproveite o Cifra Club com benefícios exclusivos e sem anúncios
    OK