Cifra Club

Eu Te Amo, Ó Deus

Harpa Cristã

Cifra: Principal (violão e guitarra)
Tom: A#
E|----------------|---------6---6-|-8---8----------|---------10--11-|
B|----------------|-8---9-------8-|-----4---11--11-|-13--11---------|
G|-------------8--|-8---8-7-8-----|-8-------0---12-|-13------13--12-|
D|-------------8--|-8---6---5---8-|-6---6---13--13-|-13--13---------|
A|-------------10-|-----8-------6-|----------------|-11--10--11--13-|
E|-------------11-|-11------------|-----4---11--11-|---------13--11-|

E|-------------6-|-8--------------|-4---4---3-----|-6---------------|
B|-6-----------6-|-8---13--11--11-|-4---6---4---6-|-4---4---6---4-3-|
G|-7-----------7-|-8---10--10--8--|-5---7---3---7-|-3-------5---3---|
D|-8-----------8-|-8---10--12--8--|-------------8-|-----5---6---3---|
A|---------------|-----11--11--10-|-8-------6-----|-----3-----------|
E|-6-------------|----------------|-----6-------4-|-3-------4---6---|

E|--------------|
B|--------------|
G|-0------------|
D|-13-----------|
A|-13-----------|
E|-11-----------|
exibições 906
Acordes para:
    Composição: D.A / Francisco Xavier Colaboração e revisão:
    • Helon Oliveira

    0 comentários

    mostrar mais comentários

    Conseguiu tocar?

    0 tocaram 0 ainda não

    Grave um vídeo tocando Eu Te Amo, Ó Deus e mande pra gente!

    00:00 / 00:00
    outros vídeos desta música
    repetir qualidade Automático
    Outros vídeos desta música
    00:00 / 00:00
    Automático
    OK