Cifra Club

Finda-se Minha Prisão

Harpa Cristã

Cifra: Principal (violão e guitarra)
Tom: G
E|------------8--8------10----8--|-8-------8--8--------8--12-12--10-|
B|------10-10-10-10-----10-10-10-|-11------10-10-11-11-10-11-11--11-|
G|------10-10-10-10-----10-10-10-|-9-------------12-12-----------9--|
D|------10-10--------------10----|---------10-10-10-10----10-10-----|
A|------8--8--8--8----8-8--8--8--|-10---10-8------------------------|
E|------------------8------------|----8-------8--8--8-----8--8---8--|

E|-8----------8--8------10----8--|-8-------8--8--------6-5--3-|
B|-10---10-10-10-10-----10-10----|--------------6--6--------1-|
G|-10---10-10-10-10-----10-10-10-|-9-------9--8-8--7---7-5--3-|
D|------10-10--------------10----|-8-------8--7-10-8----------|
A|-8----8--8--8--8----8-------12-|-10---10-10-8-0------8-8--3-|
E|------------------8---13-13-13-|----8------------6---6-8----|

E|-1--------------------|
B|-1--------------------|
G|-2--------------------|
D|-3--------------------|
A|----------------------|
E|----------------------|
exibições 455
Acordes para:
    Composição: Fanny Crosby Colaboração e revisão:
    • Helon Oliveira

    0 comentários

    mostrar mais comentários

    Conseguiu tocar?

    0 tocaram 0 ainda não

    Grave um vídeo tocando Finda-se Minha Prisão e mande pra gente!

    00:00 / 00:00
    outros vídeos desta música
    repetir qualidade Automático
    Outros vídeos desta música
    00:00 / 00:00
    Automático
    OK