Cifra Club

Aprenda

The Time of the Oath

Helloween

Cifra: Principal (violão e guitarra)
tom: A
Intro:

       (Part 1)                 (Part 2)                     (Part 3)
e|---------------------|--------------------------|-----------------------------|
B|---------------------|--------------------------|-----------------------------|
G|---------------------|--------------------------|-----------------------------|
D|---------------------|--------------------------|-----------------------------|
A|---------7---------7-|---------7---------2p0-3~-|---------7---------2p0-3-----|
E|-0-0-0-0---0-0-0-0---|-0-0-0-0---0-0-2h3--------|-0-0-0-0---0-0-2h3-------2-0-|
PM |------| |-------|   |-------| |---|            |-------| |---|

(Repeat part 1 5x) (Part 2 1x) (Repeat part 1 3x) (Part 3)

Main riff/verse: 2x
e|-----------%-------------------------------------------------------------------------
B|-----------%-------------------------------------------------------------------------
G|*----------%-------------------------------------------------------------------------
D|*-7-----7-------7-----7/8------8-------8-----8/10------10-------10-----8-----7----7/8
A|--7-----7-------7-----7/8------8-------8-----8/10------10-------10-----8-----7----7/8
E|----0-0---0-0-0---0-0-----0--0---0-0-0---0-0------0--0----0-0-0----0-0---0-0--0-0----
PM  |----| |-----| |---|   |----| |-----| |---|    |-----|  |-----|  |--| |---| |--|

e|-------------------------------------------------------------------------------------
B|-------------------------------------------------------------------------------------
G|-------------------------------------------------------------------------------------
D|--7------7-------7-----7/8-------8-------8-----8/10-------10-------10----------------
A|--7------7-------7-----7/8-------8-------8-----8/10-------10-------10---------3----2-
E|----0--0---0-0-0---0-0-----0---0---0-0-0---0-0------0---0----0-0-0-----2-3--3---3-2--
 PM  |----| |-----| |---|   |-----| |-----| |--|     |-----|  |-----|

Pré-chorus:
e|--------------------------------------------|
B|--------------------------------------------|
G|--------------------------------------------|
D|--------------------------------------------| 2x
A|----------2-----3~---------5--------3-------|
E|--0-----2---3-2--------2-3---3-0-2----2-0---|
  PM                          |-----|

Chorus:
e|---------------------------------------------------------|
B|---------------------------------------------------------|
G|*-------------------------------------------------------*|
D|*--5/7-----7---7-------------5/7-----7-----7/9\7\5/7\5--*| 2x
A|---3/5-----5---5-------------3/7-----5-----5/7\5\3/5\3---|
E|-------0-0---0---0-0-0---0-0-----0-0---0-0---------------|
  PM    |---| |-| |-----------|   |---| |--|
  
e|------------------------------------------------------------|
B|------------------------------------------------------------|
G|------------------------------------------------------------|
D|--2-----2---2-----2------9/10--------10------10\9--9/10\9---|
A|--0-----0---0-----0------7/8---8-8-8----8-8---8\7--7/8\-7---|
E|----0-0---0---0-0---0-0-------------------------------------|
PM   |---| |-| |---| |---|       |----|  |---| 
  
e|----------------------------------------------------------------------|
B|----------------------------------------------------------------------|
G|----------------------------------------------------------------------| 
D|--5/7-----7---7---------------5/7-----7-------------------------------| 
A|--3/5-----5---5---------------3/5-----5---------2---------------------| 
E|------0-0---0-----0-0-0---0-0-----0-0---0-0-2-3---3-5-2-----0-0-0---0-| 
PM     |---| |-|  |-----------|    |--|  |----------------------------| | 

Solo:1 Gtr.1: (main riff)

Solo:1 Gtr.2
e--------------------------------13-15-17~~--|
b-----------------------13-15-17-------------|
G--------------12-14-15----------------------|
D-----12-14-15-------------------------------|
A-12-----------------------------------------|
E--------------------------------------------|

e-15-17-18-17-15h17p15/13h15p13/12h13p12-----------------------|
B----------------------------------------15-----17-15----------|
G-------------------------------------------15--------17-14rb--|
D--------------------------------------------------------------|
A--------------------------------------------------------------|
E--------------------------------------------------------------|

e------------------------------13----15----17~-h-18--|
B--------13h14p13------------------------------------|
G-14h15----------15-14---15-14----14----14-----------|
D----------------------------------------------------|
A----------------------------------------------------|
E----------------------------------------------------|

e-17h18p17--15h17p15h17-18-17-15h17-18-17-15h17-18-17-15h17-18-17-15h17p15-20~--|
B-------------------------------------------------------------------------------|
G-------------------------------------------------------------------------------|
D-------------------------------------------------------------------------------|
A-------------------------------------------------------------------------------|
E-------------------------------------------------------------------------------|

e-20b-17----20b-17----20b-17----20b-17----22b--|
B--------20--------20--------20--------20------|
G----------------------------------------------|
D----------------------------------------------|
A----------------------------------------------|
E----------------------------------------------|

Repeat (main riff/verse)
Repeat pré-chorus:

Chorus:
e|---------------------------------------------------------|
B|---------------------------------------------------------|
G|*-------------------------------------------------------*|
D|*--5/7-----7---7-------------5/7-----7-----7/9\7\5/7\5--*| 2x
A|---3/5-----5---5-------------3/7-----5-----5/7\5\3/5\3---|
E|-------0-0---0---0-0-0---0-0-----0-0---0-0---------------|
PM      |---| |-| |-----------|   |---| |--|

e|---------------------------------------------------------
B|---------------------------------------------------------
G|---------------------------------------------------------
D|--2-----2---2-----2------9/10------10-----10\9--9/10\9---
A|--0-----0---0-----0------7/8---8-8-8--8-8-8\-7--7/8\-7---
E|----0-0---0---0-0---0-0----------------------------------
PM   |---| |-| |---| |---|      |--|   |---|

e|---------------------------------------------------------------|
B|---------------------------------------------------------------|
G|---------------------------------------------------------------|
D|--5/7-----7---7---------------5/7-----7------------------------|
A|--3/5-----5---5---------------3/5-----5---------2--------------|
E|------0-0---0-----0-0-0---0-0-----0-0---0-0-2-3---3-5-2-----0--|
PM     |---| |-|  |-----------|    |--|  |---------------|

e|-------------------------|         |----------------------------|
B|-------------------------|         |----------------------------|
G|-------------------------|         |----------------------------|
D|-------------------------| 3x      |----------------------------|
A|------------7----------7-|         |----------7---------2p0-3~--|
E|----0-0-0-0----0-0-0-0---|         |--0-0-0-0---0-0-2h3---------|
PM    |------|   |------|              |-------| |--|                4x

e|------------------------------------------------------------------------|
B|------------------------------------------------------------------------|
G|------------------------------------------------------------------------|
D|------------------------------------------------------------------------|
A|------------7----------7------7------2p0-7---------7-----7-----2p0-7----|
E|----0-0-0-0----0-0-0-0----0-0----2h3-------0-0-0-0---0-0---2h3----------|
PM   |-------| |--------|  |---|            |------|  |---| 

e|------------------------------------------------|
B|------------------------------------------------|
G|------------------------------------------------|
D|------------------------------------------------|
A|------------7-----7------2p0-7---------2p0-3~---|
E|----0-0-0-0---0-0----2h3-------0-0-2h3----------|
PM   |-------| |---|            |---|

Solo:2 Gtr.1
e----------------------------------------------|
B----------------------------------------------|
G--9h10p9------------9h10p9----9---------------|
D---------12-10-8-10--------12---10-12-8-10-7--| 2x
A----------------------------------------------|
E----------------------------------------------|
PM       |----------|      |-----------------|

Gtr.1
e---------------------------------------------------------------------|
B---------------------------------------------------------------------|
G-9-9-7-7-10-10-7-10-12-12-9-9-10-10-7-7-10-10-9-9-7-7-5-7-9-9-7-7----|
D------------------------------------------------------------------7--|
A---------------------------------------------------------------------|
E---------------------------------------------------------------------|

Repeat solo:2 gtr.1
e---------------------------------------------------------------------|
B---------------------------------------------------------------------|
G-9-9-7-7-10-10-7-10-12-12-9-9-10-10-7-7-10-10-9-9-7-7-5-5/14---------|
D---------------------------------------------------------------------|
A---------------------------------------------------------------------|
E---------------------------------------------------------------------|

Solo:2 Gtr.2
e|------------------------------------------------------|
B|------------------------------------------------------|
G|--12h14p12-------------12h14p12----12-----------------|
D|-----------15-14-12-12----------15----14-15-12-14-----| 2x
A|--------------------------------------------------15--|
E|------------------------------------------------------|
PM          |-----------|        |-----------------|

Gtr.2
e--------------------------------------------------------------------------------------
B--------------------------------------------------------------------------------------
G-12-12-10-10-14-14-10-14-15-15-12-12-14-14-10-10-14-14-12-12-------------12-12-10-10--
D-------------------------------------------------------------15-15-14-15---------------10---
A--------------------------------------------------------------------------------------
E--------------------------------------------------------------------------------------

Repeat solo:2 gtr. 2

e-----------------------------------------------------------------------------|
B-------------------------------------------------------------------------15--|
G-12-12-10-10-14-14-10-14-15-15-12-12-14-14-10-10-14-14-12-12-----------------|
D-------------------------------------------------------------15-15-14-15-----|
A-----------------------------------------------------------------------------|
E-----------------------------------------------------------------------------|

Solo:3 Gtr.1
e-------------------13-12----15-13-12-----------|
B-15-13-13-17-13-13-------13----------15-13-15--| (Riff 2)
G-----------------------------------------------|
D-----------------------------------------------|
A-----------------------------------------------|
E-----------------------------------------------|

e----------------------17-15--------------------|
B-20-18h20p18-17-15----------18-17-18-17----15~-|
G-------------------17-------------------17-----|
D-----------------------------------------------|
A-----------------------------------------------|
E-----------------------------------------------|

Repeat solo:3 gtr.1(Riff 2)

e-17-15-13--------------------------------------------------------------|
B----------17-15-13-17-15-13--------------------------------------------|
G----------------------------15-14-12-14-12-----------------------------|
D-------------------------------------------15-14-12-14-12--------------|
A----------------------------------------------------------15-14-13-12--|
E-----------------------------------------------------------------------|

Repeat solo:3 gtr.1(Riff 2)
e----------------------17-15--------------------|
B-20-18h20p18-17-15----------18-17-18-17----15~-|
G-------------------17-------------------17-----|
D-----------------------------------------------|
A-----------------------------------------------|
E-----------------------------------------------|

Repeat solo:3 gtr.1(Riff 2)

e------22~-----------------------|
B----------15-13-----------------|
G----------------14-13-12-11-10~-|
D-12/15--------------------------|
A--------------------------------|
E--------------------------------|

Solo:3 gtr.2
e-13-12-12-15-12-12-17-15----18-17-15-----------|
B-------------------------17----------18-17-18--| (Riff 2)
G-----------------------------------------------|
D-----------------------------------------------|
A-----------------------------------------------|
E-----------------------------------------------|

e-18-17h18p17-15-------20-18-17-15-17-15--------|
B----------------18-17-------------------17-18~-|
G-----------------------------------------------|
D-----------------------------------------------|
A-----------------------------------------------|
E-----------------------------------------------|

Repeat solo:3 gtr.2(Riff 2)

e-17-15-13--------------------------------------------------------------|
B----------17-15-13-17-15-13--------------------------------------------|
G----------------------------15-14-12-14-12-----------------------------|
D-------------------------------------------15-14-12-14-12--------------|
A----------------------------------------------------------15-14-13-12--|
E-----------------------------------------------------------------------|

Repeat solo:3 gtr.2(Riff 2)

e-18-17h18p17-15-------20-18-17-15-17-15--------|
B----------------18-17-------------------17-18~-|
G-----------------------------------------------|
D-----------------------------------------------|
A-----------------------------------------------|
E-----------------------------------------------|

Repeat solo:3 gtr.2(Riff 2)

e-------24~-----------------------|
B-----------18-17-----------------|
G-----------------17-16-15-14-14~-|
D-14/19---------------------------|
A---------------------------------|
Repeat pré-chorus:
Repeat chorus:
Repeat main riff:

Solo:4 gtr.1
e---------------------------------------------------------------|
B-17rb-rb-----15-17--17rb-rb-----17rb-rb-----15-17--17rb-rb-----|
G---------14-----------------15----------17-----------------19--| 3x
D---------------------------------------------------------------|
A---------------------------------------------------------------|
E---------------------------------------------------------------|

e---------------------------------------------------|
B-17rb-rb-----15-17--17rb-rb-----17rb-rb-----15-17--|
G---------14-----------------15----------17---------|
D---------------------------------------------------|
A---------------------------------------------------|
E---------------------------------------------------|

Solo:4 gtr.2
e-17rb-rb-----13-15--17rb-rb-----17rb-rb-----13-15--17rb-rb-----|
B---------15-----------------15----------17-----------------18--|
G---------------------------------------------------------------| 3x
D---------------------------------------------------------------|
A---------------------------------------------------------------|
E---------------------------------------------------------------|

e-17rb-rb-----13-15--17rb-rb-----17rb-rb-----13-15--|
B---------15-----------------15----------17---------|
G---------------------------------------------------| 
D---------------------------------------------------|
A---------------------------------------------------|
E---------------------------------------------------|

Final riff
e|-------------------------------------------------------------------|
B|-------------------------------------------------------------------|
G|----------------------5--------------------------------------------|
D|----------------------5--------------------------------------------|

E|---2-3---3---3-2~----------------0-0-0-0---0-0-0-0-----------------|
Composição de Andi Deris / Roland Grapow
7.083 exibições
    • ½ Tom
    • A
    • Bb
    • B
    • C
    • Db
    • D
    • Eb
    • E
    • F
    • F#
    • G
    • Ab
  • Adicionar à lista

    0 comentários

    Ver todos os comentários

    Conseguiu tocar?

    0 Tocaram 0 Ainda não

    Grave um vídeo tocando The Time of the Oath e nos envie!

    00:00 / 00:00
    Outros vídeos desta música
    Repetir Qualidade Automático
    Outros vídeos desta música
    00:00 / 00:00
    Automático

    Cifra Club Pro

    Aproveite o Cifra Club com benefícios exclusivos e sem anúncios
    Cifra Club Pro
    Aproveite o Cifra Club com benefícios exclusivos e sem anúncios
    OK