Cifra Club

Como É Que a Gente Fica

Henrique e Juliano

Cifra: Principal (violão e guitarra)
exibições 619.649
Tom: C (forma dos acordes no tom de G) Capotraste na 5ª casa
Intro: C  Em

Dedilhado Intro e Primeira Parte:
Parte 1 de 2
   C
E|-3-3-3-3-3-3-3-3--3-3-3-3-3-3-3-3---------|
B|-1-1-1-1-1-1-1-1--1-1-1-1-1-1-1-1---------|
G|-0-0-0-0-0-0-0-0--0-0-0-0-0-0-0-0---------|
D|-2----------------2-----------------------|
A|-3----------------3-----------------------|
E|------------------------------------------|

Parte 2 de 2
   Em
E|-3-3-3-3-3-3-3-3--3-3-3-3-3-3-3-3---------|
B|-0-0-0-0-0-0-0-0--0-0-0-0-0-0-0-0---------|
G|-0-0-0-0-0-0-0-0--0-0-0-0-0-0-0-0---------|
D|------------------------------------------|
A|-2----------------2-----------------------|
E|-0----------------0-----------------------|

Solo Intro e Primeira Parte (não usar capo):
Parte 1 de 2 - 2x
E|----------------------------------------------------|
B|----------------------------------------------------|
G|-4/5-4-0--4/5-4-0--0h2------------------------------|
D|----------------------------------------------------|
A|----------------------------------------------------|
E|----------------------------------------------------|

Parte 2 de 2
E|----------------------------------------------------|
B|-------------------1h3------------------------------|
G|-4/5-4-0--4/5-4-0-----------------------------------|
D|----------------------------------------------------|
A|----------------------------------------------------|
E|----------------------------------------------------|

Primeira Parte:

C
  Eu tava certo 
                          Em
De que o amor era para os outros 

Não era pra mim
C
  Um cara esperto fechado no meu canto 
         Em
Eu só vivia assim

Pré-refrão:

D9
   Entre uma boca e outra 
           A9
Uma dose e outra
                           C9
Toda madrugada nessa vida louca
                                 D9
Nem passou pela cabeça me apaixonar

Refrão:

                      G
Eu esbarrei no seu olhar

Tropecei no seu beijo

Colei no seu rosto
              D9
Eu queimei a língua

Foi na ponta do queixo 

Me acertou de jeito
                Am7
Olha eu na sua vida

Pensa, explica 
                    C9  D9
Como é que a gente fica

                      G
Eu esbarrei no seu olhar

Tropecei no seu beijo

Colei no seu rosto
              D9
Eu queimei a língua

Foi na ponta do queixo 

Me acertou de jeito
                Am7
Olha eu na sua vida

Pensa, explica 
     G/B            C9  D9
Como é que a gente fica
                    C  Em
Como é que a gente fica

Solo Refrão:
E|----------------------------------------------------|
B|----------------------------------------------------|
G|-4/5-4-0--4/5-4-0--2h4------------------------------|
D|----------------------------------------------------|
A|----------------------------------------------------|
E|----------------------------------------------------|

Pré-refrão:

D9
   Entre uma boca e outra 
           A9
Uma dose e outra
                           C9
Toda madrugada nessa vida louca
                                 D9
Nem passou pela cabeça me apaixonar

Refrão:

                      G
Eu esbarrei no seu olhar

Tropecei no seu beijo

Colei no seu rosto
              D9
Eu queimei a língua

Foi na ponta do queixo 

Me acertou de jeito
                Am7
Olha eu na sua vida

Pensa, explica 
                    C9  D9
Como é que a gente fica

                      G
Eu esbarrei no seu olhar

Tropecei no seu beijo

Colei no seu rosto
              D9
Eu queimei a língua

Foi na ponta do queixo 

Me acertou de jeito
                Am7
Olha eu na sua vida

Pensa, explica 
     G/B            C9  D9
Como é que a gente fica

                      G
Eu esbarrei no seu olhar

Tropecei no seu beijo

Colei no seu rosto
              D9
Eu queimei a língua

Foi na ponta do queixo 

Me acertou de jeito
                Am7
Olha eu na sua vida

Pensa, explica 
     G/B            C9  D9
Como é que a gente fica
                    C  Em  C
Como é que a gente fica

Solo Refrão Final:
E|----------------------------------------------------|
B|----------------------------------------------------|
G|-4/5-4-0--4/5-4-0--0h2------------------------------|
D|----------------------------------------------------|
A|----------------------------------------------------|
E|----------------------------------------------------|

0 comentários

mostrar mais comentários

Conseguiu tocar?

39 tocaram 2 ainda não

Grave um vídeo tocando Como É Que a Gente Fica e mande pra gente!

00:00 / 00:00
outros vídeos desta música
repetir qualidade Automático
Outros vídeos desta música
00:00 / 00:00
Automático
Capítulos
  • Tocando a música
  • Dicas Iniciais / Equipamentos
  • Acordes da Introdução e Primeira Parte
  • Tocando Introdução e Primeira Parte
  • Introdução e Primeira Parte - Parte 1 de 2
  • Introdução e Primeira Parte - Parte 2 de 2
  • Acordes do Pré-Refrão
  • Tocando o Pré-Refrão
  • Ritmo do Pré-Refrão
  • Acordes do Refrão
  • Tocando o Refrão
  • Ritmo do Refrão
  • Dicas 2
  • Tocando o Pré-Refrão (variação)
  • Dicas 3
  • Tocando o Final
  • Tocando o Solo Introdução e Primeira Parte
  • Solo Introdução e Primeira Parte - Parte 1 de 2
  • Solo Introdução e Primeira Parte - Parte 2 de 2
  • Solo Refrão
  • Solo Refrão Final
  • Encerramento
  • Ficha Técnica
OK