Cifra Club

Aprenda

Let The Whole World

Hillsong London

Tab de baixo: Principal
Tabbed By : ForFunFreak
e-mail: *

Tuning: standard

Intro:

G|------------------------------------------------------------|
D|-6-6-6-4-4-2-2--6-6-6-7-7-4-4--6-6-6-4-4-2-2--6-6-6-7-7-4-4-|
A|------------------------------------------------------------|
E|------------------------------------------------------------|

Verse:

G|----------------------------------------|
D|----------------------------------------|
A|----------------------------------------|
E|-00-000-000-000-000-000-004-4-4-5-5-2-2-|

Pre-Chorus:

(Here on the Earth...)
G|---------------------------------------------------------------------------|
D|---------------------------------------------------------------------------|
A|---------------------------------------------------------------------------|
E|-9-9-9-9-5-5-5-5-0-0-0-0-7-7-7-7-------------------------------------------|

Chorus:

G|---------------------------------------------------------------------------|
D|---------------------------------------------------------------------------|
A|----------00000000----------22222222----------00000000---------------------|
E|-00000000----------22222222----------00000000----------4-4-5-5-2-2-0-00-0--|

Bridge:

G|---------------------------------------------------------------------------|
D|---------------------------------------------------------------------------|
A|---------------------------------------------------------------------------|
E|--9-9-9-9-9-9-9-9--5-5-5-5-5-5-5-5--0-0-0-0-0-0-0-0--7-7-7-7-7-7-7-7-------|


| /  slide up
| \  slide down
| h  hammer-on
| p  pull-off
| ~  vibrato
| +  harmonic
| x  Mute note
===============================================================================

Composição de Daivid Kennedy / Jay Cook
1.195 exibições

0 comentários

Ver todos os comentários
00:00 / 00:00
Outros vídeos desta música
Repetir Qualidade Automático
Outros vídeos desta música
00:00 / 00:00
Automático

Cifra Club Pro

Aproveite o Cifra Club com benefícios exclusivos e sem anúncios
Cifra Club Pro
Aproveite o Cifra Club com benefícios exclusivos e sem anúncios
OK