Cifra Club

Aprenda

Diary

Iced Earth

Tab de baixo: Principal
Tune Down

F#||------|----------------------|----------------------|----------------------|
C#||------|----------------------|----------------------|----------------------|
G#||------|----------------------|----------------------|----------------------|
D#||------|--0--0------0--0------|--0--0------0--0------|--0--0------0--0------|
                                              
----------------------|----------------------|----------------------|
----------------------|----------------------|----------------------|
----------------------|----------------------|----------------------|
--0--0------0--0------|--0--0------0--0------|--0--0------0--0------|
                                                            
----------------------|----------------------|----------------------|
----------------------|----------------------|----------------------|
----------------------|----------------------|----------------------|
--0--0------0--0------|--0--0------0--0------|--0--0------0--0------|

----------------------|----------------------|----------------------|
----------------------|----------------------|----------------------|
----------------------|----------------------|----------------------|
--0--0------0--0------|--0--0------0--0------|--0--0------0--0------|
                                                                       
-------------------|-------------------|-------------------|-------------------|
-------------------|-------------------|-------------------|-------------------|
-------------------|-------------------|-------------------|-------------------|
--0----------------|----------3--------|--2----------------|----------3--------|

-------------------|-------------------|-------------------|-------------------|
-------------------|-------------------|-------------------|-------------------|
-------------------|-------------------|-------------------|-------------------|
--0----------------|----------3--------|--2----------------|----------3--------|
                                                                     
----------------------|----------------------|----------------------|
----------------------|----------------------|----------------------|
----------------------|----------------------|----------------------|
--0--0------0--0------|--0--0------0--0------|--0--0------0--0------|
                                                               
----------------------|----------------------|----------------------|
----------------------|----------------------|----------------------|
----------------------|----------------------|----------------------|
--0--0------0--0------|--0--0------0--0------|--0--0------0--0------|
                                                         
----------------------|----------------------|-------------------|
----------------------|----------------------|-------------------|
----------------------|----------------------|-------------------|
--0--0------0--0------|--0--0------0--0------|--0----------------|
                                                                                
-------------------|-------------------|-------------------|-------------------|
-------------------|-------------------|-------------------|-------------------|
-------------------|-------------------|-------------------|-------------------|
----------3--------|--2----------------|----------3--------|--0----------------|
                                                                            
-------------------|-------------------|-------------------|---------------|
-------------------|-------------------|-------------------|---------------|
-------------------|-------------------|-------------------|---------------|
----------3--------|--2----------------|----------3--------|--0------------|
                                                                
------------------|---------------|----------------------|---------------|
------------------|---------------|----------------------|---------------|
------------------|---------------|----------------------|---------------|
--0---------0-0-0-|--0------------|--5---5-5-5-3---3-3-3-|--0------------|
                                                                              
------------------|---------------|----------------------|-------------------|
------------------|---------------|----------------------|-------------------|
------------------|---------------|----------------------|-------------------|
--0---------0-0-0-|--0------------|--5---5-5-5-3---3-3-3-|--0----------------|
                                                                    
------------------|------------------|------------------|------------------|
------------------|------------------|------------------|------------------|
------------------|------------------|------------------|------------------|
------------------|------------------|------------------|------------------|
                                                                       
---------------------|----------------------------|----------------------------|
---------------------|----------------------------|----------------------------|
--8------5------8----|--7--------7--------5-5-8-8-|--7--------7--------5-5-8-8-|
---------------------|-----0--0-----0--0----------|-----0--0-----0--0----------|
                                                                     
----------------------------|---------------------|----------------------------|
----------------------------|---------------------|----------------------------|
--7--------7--------5-5-8-8-|--8------5------8----|--7--------7--------5-5-8-8-|
-----0--0-----0--0----------|---------------------|-----0--0-----0--0----------|
                                                                                
----------------------------|----------------------------|---------------------|
----------------------------|----------------------------|---------------------|
--7--------7--------5-5-8-8-|--7--------7--------5-5-8-8-|--8------5------8----|
-----0--0-----0--0----------|-----0--0-----0--0----------|---------------------|
                                                          
----------------------------|----------------------------|
----------------------------|----------------------------|
--7--------7--------5-5-8-8-|--7--------7--------5-5-8-8-|
-----0--0-----0--0----------|-----0--0-----0--0----------|
                                                                                
----------------------------|---------------------|----------------------------|
----------------------------|---------------------|----------------------------|
--7--------7--------5-5-8-8-|--8------5------8----|--7--------7--------5-5-8-8-|
-----0--0-----0--0----------|---------------------|-----0--0-----0--0----------|
                                                                        
----------------------------|----------------------------|---------------------|
----------------------------|----------------------------|---------------------|
--7--------7--------5-5-8-8-|--7--------7--------5-5-8-8-|--8------5------8----|
-----0--0-----0--0----------|-----0--0-----0--0----------|---------------------|
                                               
----------------------------|----------------------------|
----------------------------|----------------------------|
--7--------7--------5-5-8-8-|--7--------7--------5-5-8-8-|
-----0--0-----0--0----------|-----0--0-----0--0----------|
                                                                     
----------------------------|---------------------|----------------------------|
----------------------------|---------------------|----------------------------|
--7--------7--------5-5-8-8-|--8------5------8----|--7--------7--------5-5-8-8-|
-----0--0-----0--0----------|---------------------|-----0--0-----0--0----------|

----------------------------|----------------------------|---------------------|
----------------------------|----------------------------|---------------------|
--7--------7--------5-5-8-8-|--7--------7--------5-5-8-8-|--8------5------8----|
-----0--0-----0--0----------|-----0--0-----0--0----------|---------------------|
                                                         
-------------------|---------------------|--------------------------|
-------------------|---------------------|--------------------------|
--3----------------|--2------------------|--------------------------|
-------------------|-----------3----2----|--0----0--0-0-0--0--0--0--|
                                                             
--------------------------|-------------------|---------------------|
--------------------------|-------------------|---------------------|
--------------------------|--3----------------|--2------------------|
--0--0--0--0--0--0--0--0--|-------------------|-----------3----2----|
                                                          
----------------------------|----------------------------|
----------------------------|----------------------------|
--7--------7--------5-5-8-8-|--7--------7--------5-5-8-8-|
-----0--0-----0--0----------|-----0--0-----0--0----------|

----------------------------|---------------------|----------------------------|
----------------------------|---------------------|----------------------------|
--7--------7--------5-5-8-8-|--8------5------8----|--7--------7--------5-5-8-8-|
-----0--0-----0--0----------|---------------------|-----0--0-----0--0----------|
                                                                       
----------------------------|----------------------------|---------------------|
----------------------------|----------------------------|---------------------|
--7--------7--------5-5-8-8-|--7--------7--------5-5-8-8-|--8------5------8----|
-----0--0-----0--0----------|-----0--0-----0--0----------|---------------------|
                                                          
----------------------------|----------------------------|
----------------------------|----------------------------|
--7--------7--------5-5-8-8-|--7--------7--------5-5-8-8-|
-----0--0-----0--0----------|-----0--0-----0--0----------|
                                                                                
----------------------------|---------------------|----------------------------|
----------------------------|---------------------|----------------------------|
--7--------7--------5-5-8-8-|--8------5------8----|--7--------7--------5-5-8-8-|
-----0--0-----0--0----------|---------------------|-----0--0-----0--0----------|
                                                                                
----------------------------|----------------------------|---------------------|
----------------------------|----------------------------|---------------------|
--7--------7--------5-5-8-8-|--7--------7--------5-5-8-8-|--8------5------8----|
-----0--0-----0--0----------|-----0--0-----0--0----------|---------------------|
                                                                     
-------------------|---------------------|--------------------------|
-------------------|---------------------|--------------------------|
--3----------------|--2------------------|--------------------------|
-------------------|-----------3----2----|--0----0--0-0-0--0--0--0--|
                                                                
--------------------------|-------------------|---------------------|
--------------------------|-------------------|---------------------|
--------------------------|--3----------------|--2------------------|
--0--0--0--0--0--0--0--0--|-------------------|-----------3----2----|
                                                                          
---------------------|---------------------|-----------------------------|
--2------0------2----|----0------3----3----|-----------------------------|
---------------------|---------------------|-----------------------------|
---------------------|---------------------|--0--0-0-0--0--0-0-0--0-0-0--|
                                                                           
------------------------------|---------------------|---------------------|
------------------------------|--2------0------2----|----0------3----3----|
------------------------------|---------------------|---------------------|
--0-0-0--0-0-0--0-0-0--0-0-0--|---------------------|---------------------|
                                                             
-----------------------------|------------------------------|
-----------------------------|------------------------------|
-----------------------------|------------------------------|
--0--0-0-0--0--0-0-0--0-0-0--|--0-0-0--0-0-0--0-0-0--0-0-0--|
                                                                  
---------------------|---------------------|-----------------------------|
--2------0------2----|----0------3----3----|-----------------------------|
---------------------|---------------------|-----------------------------|
---------------------|---------------------|--0--0-0-0--0--0-0-0--0-0-0--|
                                                                           
------------------------------|---------------------|---------------------|
------------------------------|--2------0------2----|----0------3----3----|
------------------------------|---------------------|---------------------|
--0-0-0--0-0-0--0-0-0--0-0-0--|---------------------|---------------------|

-------------------|-------------------|-------------------|-------------------|
-------------------|-------------------|-------------------|-------------------|
-------------------|-------------------|-------------------|-------------------|
--0----------------|----------3--------|--2----------------|----------3--------|
                                                                      
-------------------|-------------------|-------------------|-------------------|
-------------------|-------------------|-------------------|-------------------|
-------------------|-------------------|-------------------|-------------------|
--0----------------|----------3--------|--2----------------|----------3--------|
                                                          
-------------------|---------------------|-------------------|
-------------------|---------------------|-------------------|
-------------------|---------------------|-------------------|
--0----------------|--0--0------3--------|--2----------------|
                                                                
---------------------|-------------------|---------------------|
---------------------|-------------------|---------------------|
---------------------|-------------------|---------------------|
--2--2------3--------|--0----------------|--0--0------3--------|
                                                                  
-------------------|---------------------|---------------|--------------|
-------------------|---------------------|---------------|--------------|
-------------------|---------------------|--7------------|--------------|
--2----------------|--2--2------3--------|--0------------|--------------|
                                                          
--------------------------|------------------------------|
--------------------------|------------------------------|
--------------------------|--3---2-2-2-2-----------------|
--0-0-0-0-0-0-0-0-0-0-0-0-|--------------5-5-5-5-3-3-3-0-|
                                                
--------------------------|--------------------------|
--------------------------|------------------------5-|
--------------------------|--------------------3-5---|
--0-0-0-0-0-0-0-0-0-0-0-0-|--0-0-0-0-0-0-0-0-0-------|
                                                      
--------------------------|------------------------------|
--------------------------|------------------------------|
--------------------------|--3---2-2-2-2-----------------|
--0-0-0-0-0-0-0-0-0-0-0-0-|--------------5-5-5-5-3-3-3-0-|
                                                                     
----------------------|----------------------|----------------------|
----------------------|----------------------|----------------------|
--3---------3---------|--3---------3---------|--2---------2---------|
-----1-1--1----1-1--1-|-----1-1--1----1-1--1-|-----0-0--0----0-0--0-|

----------------------|----------------------|----------------------|
----------------------|----------------------|----------------------|
--2---------2---------|--3---------3---------|--3---------3---------|
-----0-0--0----0-0--0-|-----1-1--1----1-1--1-|-----1-1--1----1-1--1-|
                                                          
----------------------|----------------------|---------------------|
----------------------|----------------------|--2------0------2----|
--2---------2---------|--2---------2---------|---------------------|
-----0-0--0----0-0--0-|-----0-0--0----0-0--0-|---------------------|
                                           
---------------------|-----------------------------|
----0------3----3----|-----------------------------|
---------------------|-----------------------------|
---------------------|--0--0-0-0--0--0-0-0--0-0-0--|
                                                                    
------------------------------|---------------------|---------------------|
------------------------------|--2------0------2----|----0------3----3----|
------------------------------|---------------------|---------------------|
--0-0-0--0-0-0--0-0-0--0-0-0--|---------------------|---------------------|
                                                 
-----------------------------|------------------------------|
-----------------------------|------------------------------|
-----------------------------|------------------------------|
--0--0-0-0--0--0-0-0--0-0-0--|--0-0-0--0-0-0--0-0-0--0-0-0--|
                                                                          
---------------------|---------------------|-----------------------------|
--2------0------2----|----0------3----3----|-----------------------------|
---------------------|---------------------|-----------------------------|
---------------------|---------------------|--0--0-0-0--0--0-0-0--0-0-0--|
                                                                           
------------------------------|---------------------|---------------------|
------------------------------|--2------0------2----|----0------3----3----|
------------------------------|---------------------|---------------------|
--0-0-0--0-0-0--0-0-0--0-0-0--|---------------------|---------------------|
                                                         
-------------------|------------------|---------------9--------|
-------------------|------------------|------------9-----9--8--|
-------------------|------------------|--7------7--------------|
--0----------------|------------------|------------------------|
                                                                             
----------------9--------|----------------10--------|----------9------------|
-------8-----8-----8-----|------------10------------|-------9-------9-------|
----8-----8-----------7--|--8------8----------8--7--|----7-------------7----|
-------------------------|--------------------------|-----------------------|
                                                                              
---------------9--------|----------------9--------|----------------10--------|
------------9-----9--8--|-------8-----8-----8-----|------------10------------|
--7------7--------------|----8-----8-----------7--|--8------8----------8--7--|
------------------------|-------------------------|--------------------------|
                                                                           
----------9------------|---------------9--------|----------------9--------|
-------9-------9-------|------------9-----9--8--|-------8-----8-----8-----|
----7-------------7----|--7------7--------------|----8-----8-----------7--|
-----------------------|------------------------|-------------------------|
                                                                            
----------------10--------|----------9------------|---------------9--------|
------------10------------|-------9-------9-------|------------9-----9--8--|
--8------8----------8--7--|----7-------------7----|--7------7--------------|
--------------------------|-----------------------|------------------------|
                                                                             
----------------9--------|----------------10--------|----------9------------|
-------8-----8-----8-----|------------10------------|-------9-------9-------|
----8-----8-----------7--|--8------8----------8--7--|----7-------------7----|
-------------------------|--------------------------|-----------------------|
                                                                              
---------------9--------|----------------9--------|----------------10--------|
------------9-----9--8--|-------8-----8-----8-----|------------10------------|
--7------7--------------|----8-----8-----------7--|--8------8----------8--7--|
------------------------|-------------------------|--------------------------|
                                                          
----------9-------------|-------------------|------------------|
-------9-------9--------|-------------------|------------------|
----7-------------------|--7----------------|------------------|
------------------0--0--|-------------------|------------------|
                                                             
------------------|--------------------|--------------------|
------------------|--------------------|--------------------|
------------------|--------------------|--7-----------------|
------------------|--------------0--0--|-------0------------|
                                                                                
-------------------|---------------------|------------------|------------------|
-------------------|---------------------|------------------|------------------|
------5------------|---------------------|------------------|------------------|
-------------------|------0--------0--0--|------------------|------------------|
                                                             
----------|------------------|------------------|------------------|
----------|------------------|------------------|------------------|
----------|------------------|------------------|------------------|
----------|------------------|------------------|------------------|
                                                                                
---------------------|----------------------------|----------------------------|
---------------------|----------------------------|----------------------------|
--8------5------8----|--7--------7--------5-5-8-8-|--7--------7--------5-5-8-8-|
---------------------|-----0--0-----0--0----------|-----0--0-----0--0----------|
                                                                           
----------------------------|---------------------|----------------------------|
----------------------------|---------------------|----------------------------|
--7--------7--------5-5-8-8-|--8------5------8----|--7--------7--------5-5-8-8-|
-----0--0-----0--0----------|---------------------|-----0--0-----0--0----------|
                                                                                
----------------------------|----------------------------|---------------------|
----------------------------|----------------------------|---------------------|
--7--------7--------5-5-8-8-|--7--------7--------5-5-8-8-|--8------5------8----|
-----0--0-----0--0----------|-----0--0-----0--0----------|---------------------|
                                                          
----------------------------|----------------------------|
----------------------------|----------------------------|
--7--------7--------5-5-8-8-|--7--------7--------5-5-8-8-|
-----0--0-----0--0----------|-----0--0-----0--0----------|
                                                                                
----------------------------|---------------------|----------------------------|
----------------------------|---------------------|----------------------------|
--7--------7--------5-5-8-8-|--8------5------8----|--7--------7--------5-5-8-8-|
-----0--0-----0--0----------|---------------------|-----0--0-----0--0----------|
                                                                         
----------------------------|----------------------------|---------------------|
----------------------------|----------------------------|---------------------|
--7--------7--------5-5-8-8-|--7--------7--------5-5-8-8-|--8------5------8----|
-----0--0-----0--0----------|-----0--0-----0--0----------|---------------------|

----------------------------|----------------------------|
----------------------------|----------------------------|
--7--------7--------5-5-8-8-|--7--------7--------5-5-8-8-|
-----0--0-----0--0----------|-----0--0-----0--0----------|
                                                                         
----------------------------|---------------------|----------------------------|
----------------------------|---------------------|----------------------------|
--7--------7--------5-5-8-8-|--8------5------8----|--7--------7--------5-5-8-8-|
-----0--0-----0--0----------|---------------------|-----0--0-----0--0----------|
                                                                           
----------------------------|----------------------------|---------------------|
----------------------------|----------------------------|---------------------|
--7--------7--------5-5-8-8-|--7--------7--------5-5-8-8-|--8------5------8----|
-----0--0-----0--0----------|-----0--0-----0--0----------|---------------------|
                                                               
-------------------|---------------------|--------------------------|
-------------------|---------------------|--------------------------|
--3----------------|--2------------------|--------------------------|
-------------------|-----------3----2----|--0----0--0-0-0--0--0--0--|
                                                                     
--------------------------|-------------------|---------------------|
--------------------------|-------------------|---------------------|
--------------------------|--3----------------|--2------------------|
--0--0--0--0--0--0--0--0--|-------------------|-----------3----2----|
                                                                          
---------------------|---------------------|-----------------------------|
--2------0------2----|----0------3----3----|-----------------------------|
---------------------|---------------------|-----------------------------|
---------------------|---------------------|--0--0-0-0--0--0-0-0--0-0-0--|
                                                                    
------------------------------|---------------------|---------------------|
------------------------------|--2------0------2----|----0------3----3----|
------------------------------|---------------------|---------------------|
--0-0-0--0-0-0--0-0-0--0-0-0--|---------------------|---------------------|
                                                       
-----------------------------|------------------------------|
-----------------------------|------------------------------|
-----------------------------|------------------------------|
--0--0-0-0--0--0-0-0--0-0-0--|--0-0-0--0-0-0--0-0-0--0-0-0--|
                                                                     
---------------------|---------------------|-----------------------------|
--2------0------2----|----0------3----3----|-----------------------------|
---------------------|---------------------|-----------------------------|
---------------------|---------------------|--0--0-0-0--0--0-0-0--0-0-0--|
                                                                           
------------------------------|---------------------|---------------------|
------------------------------|--2------0------2----|----0------3----3----|
------------------------------|---------------------|---------------------|
--0-0-0--0-0-0--0-0-0--0-0-0--|---------------------|---------------------|
        
------||
------||
------||
------||
Composição de Dave Abell / Matthew Barlow / Randall Shawver / Woody Schabata
Colaboração e revisão:
  • Taino Vieira
18 exibições

0 comentários

Ver todos os comentários
00:00 / 00:00
outros vídeos desta música
repetir qualidade Automático
Outros vídeos desta música
00:00 / 00:00
Automático

Cifra Club Pro

Aproveite o Cifra Club com benefícios exclusivos e sem anúncios
Cifra Club Pro
Aproveite o Cifra Club com benefícios exclusivos e sem anúncios
OK