Cifra Club

Jura

Israel e Rodolffo

Cifra: Principal (violão e guitarra)
tom: C
[Intro] C  F  C  F

     C              F
E|-------0---------------1-3-1-------------------|
B|---------1-------------------------------------|
G|-----0-----0---------2-------------------------|
D|---2---------------3---------------------------|
A|-3---------------3-----------------------------|
E|-----------------------------------------------|

C               F C       F
Não me diga nada, eu sabia
C             F           G
Que o nosso romance acabaria
C             F   C                   F
Não me diga nada, não quero mais palavras
C               F              G
Já cansei de ouvir suas mentiras
C               F    C          F
Já não há mais nada, pra se dizer
C            F            G
Seu amor é tudo que eu queria
C             F   C                          F
Não me diga nada, quem está sofrendo aqui sou eu
C               F               G
Quero ter de volta as nossas vidas

C                              Am
Jura me diz que tudo isso é loucura
                               Dm
Que nosso amor não está se acabando
                        G
Que ainda eu posso ser seu
C                               Am
Jura me diz que tudo isso é loucura
                         Dm
Que ainda continua me amando
                        G
Que o seu coração é só meu

C                         G
Não vá buscar um outro olhar
                       Dm
Um novo amor pra se entregar
                          Am                  E
Só de pensar que existe alguém eu morro de ciúmes
C                      G
Você é tudo que eu sonhei
                         F
E amar assim como eu te amei
                 G
Ninguém vai te amar

E|-----------------------------------------------|
B|--------------------------------8---8/10-10-8--|
G|-----5h7-7/9-9~-7b9p5---5h7-7/9---9------------|
D|-5h7------------------7------------------------|
A|-----------------------------------------------|
E|-----------------------------------------------|

E|-----------------------------------------------|
B|-6-----6----------6----------6-6-6~------------|
G|---5----------5----------5---------------------|
D|-----7----------7----------7-------------------|
A|-----------------------------------------------|
E|-----------------------------------------------|

C                 F  C         F
Já não há mais nada, pra se dizer
C               F           G
Seu amor é tudo que eu queria

C   F   C   F
Na na na na na
C               F               G
Quero ter de volta as nossas vidas

C                               Am
Jura me diz que tudo isso é loucura
                                Dm
Que nosso amor não está se acabando
                        G
Que ainda eu posso ser seu
C                               Am
Jura me diz que tudo isso é loucura
                         Dm
Que ainda continua me amando
                        G
Que o seu coração é só meu
00:00 / 00:00
Outros vídeos desta música
Repetir
Outros vídeos desta música
Compositor não encontrado.
Colaboração e revisão:
  • James Magalhães
1.657 exibições
    • ½ Tom
    • A
    • Bb
    • B
    • C
    • Db
    • D
    • Eb
    • E
    • F
    • F#
    • G
    • Ab
  • Adicionar à lista

    0 comentários

    Ver todos os comentários

    Entre para oCifra Club PRO

    Tenha acesso a benefícios exclusivos no App e no Site

    • Chega de anúncios

    • Prioridade de compra em lançamentos

    • Mais recursos no app do Afinador

    • Atendimento Prioritário

    • Descontos nos produtos Cifra Club

    • Ajude a produzir mais conteúdo

    00:00 / 00:00

    Cifra Club Pro

    Aproveite o Cifra Club com benefícios exclusivos e sem anúncios
    Cifra Club Pro
    Aproveite o Cifra Club com benefícios exclusivos e sem anúncios
    OK