Cifra Club

Z da Questão

Itamar Assumpção

Cifra: Principal (violão e guitarra)
tom: E
[Intro]

E|-----------------------|
B|-----------------------|
G|-----------------------|
D|-----------------------|
A|---7-6-5-4-3-2-1-0-----|
E|-----------------------|

E               G                              A         A4  A  A4  A
Fiz essa canção com versos vulgares, melhores não sei pra dar-lhes
E              G                 A         A4  A  A4  A
Sou poeta não vim, só entregar-me, só vim cantar-lhe

E|-----------------------|
B|-----------------------|
G|-----------------------|
D|-----------------------|
A|-----------------------|
E|-0-1-2-3-4-5-6-7-------|

E                                           A
Eu não sou Romeu, nem Ulisses, nem de longe o mago de Oz

E|-----------------------|
B|-----------------------|
G|-----------------------|
D|-----------------------|
A|---------2-1-0---------|
E|-3-2-1-0---------------|

E                           G                     A      A4  A  A4  A
Nem Zeus nem Jesus, nenhum Deus, em Eros nem Platão, nem Sócrates

E|-----------------------|
B|-----------------------|
G|-----------------------|
D|-----------------------|
A|---7-6-5-4-3-2-1-0-----|
E|-----------------------|

E                    G                      A      A4  A  A4  A
Às vezes me afundo, fico reclamando de tudo, de todo mundo
E                  G                           A     A4  A  A4  A
Bate um desespero ver alguém matar alguém por meros 30 dinheiros

E|-----------------------|
B|-----------------------|
G|-----------------------|
D|-----------------------|
A|-----------------------|
E|-0-1-2-3-4-5-6-7-------|

E                                                A
Fato corriqueiro, mas não me acostumo nem gosto do cheiro

E|-----------------------|
B|-----------------------|
G|-----------------------|
D|-----------------------|
A|---------2-1-0---------|
E|-3-2-1-0---------------|

E                 G                        A      A4  A  A4  A
Complicado o que sou assim aqui Viena ou Milão

E|----------------------------------------------|
B|----------------------------------------------|
G|----------------------------------------------|
D|----------------------------------------------|
A|----------------------------------------------|
E|-0-1-2-3-4-5-6-7-8-9-10-11-12-13-14-15-16-17--|

Na penha São Paulo na estrela vésper, n'algum lugar do Japão

( G  D  E  Eb  D  Eb  D  A  A4  A  A4  A ) 

E|-------------------|
B|-------------------|
G|-------------------|
D|-------------------|
A|---7-6-5-4-3-2-1-0-|
E|-------------------|

E                  G                        A   A4  A  A4  A
Shyiwacê wa shita ni teral no rana no chita me
E                 G                            A   A4  A  A4  A
Ser ou não feliz, existe um ditado por aí que diz

E|-----------------|
B|-----------------|
G|-----------------|
D|-----------------|
A|-----------------|
E|-0-1-2-3-4-5-6-7-|

E                                             A
A felicidade fica bem debaixo do nosso próprio nariz

E|-----------------|
B|-----------------|
G|-----------------|
D|-----------------|
A|---------2-1-0---|
E|-3-2-1-0---------|

( E  G  A  A4  A  A4  A )

D7+                  G7+
Meu amor, porque que todo o tempo
D7+                    G7+
Você toma conta do meu pensamento
D7+                 G7+
Até nos lugares que ando e frequento
D7+                     G7+
O teu cheiro chega vindo com o vento
D7+ 
Fica ardendo, me comendo lá no fundo
G7+
Cada segundo, cada minuto, cada momento
D7+                  G7+
Sei lá eu porque te quero tanto
D7+                          G7+
Só sei que vai dar pra lá do infinito
D7+                  G7+
É bem parecido com o fim do mundo
D7+                      G7+
O teu nome sobre os muros deixo escrito
D7+ 
Fica ardendo, me comendo lá no fundo
G7+
Cada segundo, cada minuto, cada momento
D7+                           G7+
Quanto mais te evito mais eu te encontro
D7+                         G7+
Quanto mais eu fujo mais eu te desejo
D7+               G7+
Posso até ficar ficando doido
D7+                       G7+
Mas meu coração está bem lúcido
D7+ 
Fica ardendo, me comendo lá no fundo
G7+
Cada segundo, cada minuto, cada momento
00:00 / 00:00
Outros vídeos desta música
Repetir
Outros vídeos desta música
Compositor não encontrado.
Colaboração e revisão:
  • Marcelo Filho
219 exibições
    • ½ Tom
    • A
    • Bb
    • B
    • C
    • Db
    • D
    • Eb
    • E
    • F
    • F#
    • G
    • Ab
  • Adicionar à lista

    0 comentários

    Ver todos os comentários

    Conseguiu tocar?

    0 Tocaram 0 Ainda não

    Grave um vídeo tocando Z da Questão e nos envie!

    00:00 / 00:00

    Cifra Club Pro

    Aproveite o Cifra Club com benefícios exclusivos e sem anúncios
    Cifra Club Pro
    Aproveite o Cifra Club com benefícios exclusivos e sem anúncios
    OK