Cifra Club

Aprenda

Deixo

Ivete Sangalo

Cifra: Tablatura-instrumental (violão e guitarra)
tom: G
[Intro]

E|--------------------------|------------------------|
B|--------------------------|------------------------|
G|--------------------------|------------------------|
D|-------9-7-7/9---8b9r8-8--|-------9-7-7/9----------|
A|---7/9---------9----------|---7/9---------9-8-8/9--|
E|--------------------------|------------------------|

Eu me lembro sempre onde quer que eu vá

E|--------------------------------------|
B|--------------------------------------|
G|--------------------------8-----------|
D|--9/11-11-11-11-8-11-8-11----8p6------|
A|---------------------------------9~~--|
E|--------------------------------------|

Só um pensamento em qualquer lugar

E|------------------------------------|
B|------------------------------------|
G|--------------------------8---------|
D|--9/11-11-11-11-8-11-8-11----8-6-6--|
A|------------------------------------|
E|------------------------------------|

Só penso em você, em querer te encontrar, Ah! Ah!

E|-------------|---------------------|----------|
B|-------------|---------------------|----------|
G|-------------|---------------------|----------|
D|----8-6------|-------8-6---8-11-8--|--6p4h6---|
A|--6-----9-9--|---6-9-----9---------|----------|
E|-------------|---------------------|----------|

Só penso em você, em querer te encontrar

E|-------------|----------------|
B|-------------|----------------|
G|-------------|----------------|
D|----8-6------|-------8-6------|
A|--6-----9-9--|---6-9-----9-9--|
E|-------------|----------------|

Lembro daquele beijo que você me deu

E|--------------------------------------|
B|--------------------------------------|
G|--------------------------8-----------|
D|--9/11-11-11-11-8-11-8-11----8p6------|
A|---------------------------------9~~--|
E|--------------------------------------|

E que até hoje está gravado em mim

E|------------------------------------|
B|------------------------------------|
G|--------------------------8---------|
D|--9/11-11-11-11-8-11-8-11----8-6-6--|
A|------------------------------------|
E|------------------------------------|

Quando a noite vem, fico louco pra dormir

E|-------------|--------------------|
B|-------------|--------------------|
G|-------------|--------------------|
D|----8-6------|-------8-6-6---7~~--|
A|--6-----9-9--|---6-9-------9------|
E|-------------|--------------------|

Só pra ter você nos meus sonhos. Me falando coisas de amor

E|---------------------|--------------------|
B|---------------------|--------------------|
G|---------------------|-----------------6--|
D|------------6-7-7-6--|--6-6-6-6-6--7-9----|
A|--9-9-9-9-9----------|--------------------|
E|---------------------|--------------------|

[Solo]

E|-----------------------------------------------|
B|--11/13--11----11------------------------------|
G|------------13----13-11------11----------------|
D|--------------------------13----13-11-9--9/12--|
A|-----------------------------------------------|
E|-----------------------------------------------|

Sinto que me perco no tempo. Debaixo do meu cobertor

E|---------------------|--------------------|
B|---------------------|--------------------|
G|---------------------|-----------------6--|
D|------------6-7-7-6--|--6-6-6-6-6--7-9----|
A|--9-9-9-9-9----------|--------------------|
E|---------------------|--------------------|

[Solo]

E|---16-14-------------------------|
B|---------16-14-12----12-14-------|
G|------------------13-------13~~--|
D|---------------------------------|
A|---------------------------------|
E|---------------------------------|

Eu faria tudo pra não te perder, assim!

E|---------------6--------------|------|
B|-------9-7--------9-7-6-------|------|
G|--6-8-------8------------6-8--|--8---|
D|------------------------------|----6-|
A|------------------------------|------|
E|------------------------------|------|

Mas o dia vem e deixo você ir

E|--------------6---------------|
B|------9-7-------9-7-6---6/7---|
G|--6-8-----8-----------6-------|
D|------------------------------|
A|------------------------------|
E|------------------------------|

[Solo]

E|---------5/6--------------------7/9--7-9-6----7-9-6----|
B|--6/7-9------7-----5-5/7------5------------7--------7--|
G|---------------5/7--------5/7--------------------------|
D|-------------------------------------------------------|
A|-------------------------------------------------------|
E|-------------------------------------------------------|

E|---------5/6--------------------7/9--7-9-7----9/14~~--|
B|--6/7-9------7-----5-5/7------5-----------------------|
G|---------------5/7--------5/7-------------------------|
D|------------------------------------------------------|
A|------------------------------------------------------|
E|------------------------------------------------------|

Lembro daquele beijo que você me deu

E|--------------------------------------|
B|--------------------------------------|
G|--------------------------8-----------|
D|--9/11-11-11-11-8-11-8-11----8p6------|
A|---------------------------------9~~--|
E|--------------------------------------|

E que até hoje está guardado em mim

E|------------------------------------|
B|------------------------------------|
G|--------------------------8---------|
D|--9/11-11-11-11-8-11-8-11----8-6-6--|
A|------------------------------------|
E|------------------------------------|

Quando a noite vem, fico louco pra dormir

E|-------------|--------------------|
B|-------------|--------------------|
G|-------------|--------------------|
D|----8-6------|-------8-6-6---7~~--|
A|--6-----9-9--|---6-9-------9------|
E|-------------|--------------------|

Só pra ter você nos meus sonhos. Me falando coisas de amor, Oh! Oh! Oh!

E|---------------------|--------------------|-----------|
B|---------------------|--------------------|------9-7--|
G|---------------------|-----------------6--|--6-8------|
D|------------6-7-7-6--|--6-6-6-6-6--7-9----|-----------|
A|--9-9-9-9-9----------|--------------------|-----------|
E|---------------------|--------------------|-----------|

Sinto que me perco no tempo, Debaixo do meu cobertor

E|---------------------|--------------------|
B|---------------------|--------------------|
G|---------------------|-----------------6--|
D|------------6-7-7-6--|--6-6-6-6-6--7-9----|
A|--9-9-9-9-9----------|--------------------|
E|---------------------|--------------------|


Eu faria tudo pra não te perder, assim!

E|---------------6--------------|------|
B|-------9-7--------9-7-6-------|------|
G|--6-8-------8------------6-8--|--8---|
D|------------------------------|----6-|
A|------------------------------|------|
E|------------------------------|------|

Mas o dia vem e deixo você ir

E|--------------6---------------|
B|------9-7-------9-7-6---6/7---|
G|--6-8-----8-----------6-------|
D|------------------------------|
A|------------------------------|
E|------------------------------|

Deixo você ir, Deixo você ir

E|---------------|----------------|
B|--7------------|--7-9-10-6/7-7--|
G|----9-7-6/7-7--|----------------|
D|---------------|----------------|
A|---------------|----------------|
E|---------------|----------------|
Composição de Jorge Papapa / Sérgio Passos
Colaboração e revisão:
  • Gilson Feitosa
793 exibições
    • ½ Tom
    • A
    • Bb
    • B
    • C
    • Db
    • D
    • Eb
    • E
    • F
    • F#
    • G
    • Ab
  • Adicionar à lista

    0 comentários

    Ver todos os comentários

    Conseguiu tocar?

    0 Tocaram 0 Ainda não

    Grave um vídeo tocando Deixo e nos envie!

    00:00 / 00:00
    Outros vídeos desta música
    Repetir Qualidade Automático
    Outros vídeos desta música
    00:00 / 00:00
    Automático

    Cifra Club Pro

    Aproveite o Cifra Club com benefícios exclusivos e sem anúncios
    Cifra Club Pro
    Aproveite o Cifra Club com benefícios exclusivos e sem anúncios
    OK