Cifra Club

Bye, Bye Baby

Janis Joplin

Cifra: Principal
exibições 18.510
Tom: D
Intro:


            E|----------------3---7------5---3-----------------------------
            B|---3--3--5--------------------------5-----3------4------5----
            G|-------------------------------------------------------------
            D|-------------------------------------------------------------
            A|---------------------------2---3----4-----5------6------7----
            E|--------------------3----------------------------------------

            E|-----------------------------------
            B|-----------------------------------
            G|--6--6---6----5---5----4-----------
            D|-----------------------------------
            A|--------------5---5----------------
            E|--5--5---5-------------3-----------
 

D7


G      C    C#º    G       F
Bye, bye-bye, baby, bye-bye.
C                            G
I gotta be seeing you around
C                                       G     E
When I change my living standard and I move uptown,
A        D           G
Bye-bye, baby, bye-bye.

(igual primeiro verso)   
So long, my honey, so long.
Too bad you had to drift away
'Cause I could use some company
Right here on this road, on this road I'm on today.

  C                                       G
I get the feeling I could chase you clean on in the ball
 C                                        G
And wind up staying pull off, put down strung out and stalled.
 C                                                       G           E     
Honey, I ain't got time to wait on you or to fetch your superball
A                  D                             G
I got lots of things I've got to do.

Solo:  C   G   C     G    E     A    D    G
C                                       G
I know that you got things to do and places to be.
C                                         G
I guess I'll have to find the thing you placed on me.
C                                 G              E 
I may wind up in the street or sleep beneath a tree,
A                                      D           G
Still I guess you know honey I've gotta go.

Bye, bye-bye, baby, bye-bye.
I guess you know you're on your own,
It seems you just got lost somewhere out in the world
And you left me here to face it all alone,
You left me here to face it all alone,
You left me here to face it all alone,
Bye, bye-bye baby, baby bye-bye!
Acordes para:
    Composição: Powell St. JohnColaboração e revisão:
    • Luis Braschi

    0 comentários

      mostrar mais comentários

      Conseguiu tocar?

      0tocaram0ainda não

      Grave um vídeo tocando Bye, Bye Baby e mande pra gente!

      00:00 / 00:00
      outros vídeos desta música
      repetirqualidadeautomática
      Outro vídeos desta música
        00:00 / 00:00
        automática
        OK