Cifra Club

Aprenda

Imagine

John Lennon

Cifra: Aula-completa (violão e guitarra)
Quer fazer aulas de música com a gente? Responda essas perguntas
e nos ajude nesse projeto! →
tom: C
[Intro] C  C7M  F
        C  C7M  F

   C            C7M  F
E|------------------------------------------|
B|--------------0---------------------0-----|
G|-0----0---0---0----2----2---2---2h3-------|
D|-2----2---2--------3----3---3-------------|
A|-3--3---3---3---3-----3---3---3-----------|
E|-------------------1----------------------|

[Primeira Parte]

Parte 1 de 2
   C            C7M  F
E|------------------------------------------|
B|--------------0---------------------0-----|
G|-0----0---0---0----2----2---2---2h3-------|
D|-2----2---2--------3----3---3-------------|
A|-3--3---3---3---3-----3---3---3-----------|
E|-------------------1----------------------|

Parte 2 de 2
  C            C7M  F
E|------------------------------------------|
B|--------------0---------------------------|
G|-0----0---0---0----2----2---2---2---------|
D|-2----2---2--------3----3---3---3---------|
A|-3--3---3---3---3-----3---3---3---3-------|
E|-------------------1----------------------|

C                  C7M      F
  Imagine there's no heaven
C               C7M  F
  It's easy if you try
C          C7M  F
  No hell below us
C          C7M    F
  Above us only sky

[Refrão]

Parte 1 de 2
   F         C/E       Dm        Dm/C
E|---------------------1----1----1----1-----|
B|-1----1----1----1----3----3----3----3-----|
G|-2----2----0----0----2----2----2----2-----|
D|-3----3----2----2----0--0---0-------------|
A|-------------------------------3--3---3---|
E|-1--1---1--0--0---0-----------------------|

Parte 2 de 2
   G                    G7
E|----------------0-----1-------------------|
B|-0----0----0----1-----3-------------------|
G|-0----0----0----0-----0-------------------|
D|-0----0----0------------------------------|
A|------------------------------------------|
E|-3--3---3--3--3----3--3-------------------|

F         C/E          Dm  Dm/C
  Imagine all the people
 G            G7
Living for today

[Segunda Parte]

C                  C7M     F
  Imagine there's no countries
C                C7M  F
  It isn't hard to   do
C                 C7M  F
  Nothing to kill or die for
C              C7M  F
  And no religion too

[Refrão]

F         C/E          Dm  Dm/C
  Imagine all the people
 G              G7
Living life in peace

[Terceira Parte]

Parte 1 de 2
   F         G         C    C7M  E7
E|-------------------------------0----------|
B|-1----1----0----0----1----0----0----3-----|
G|-2----2----0----0----0----0----1----1-----|
D|-3----3----0----0----2----2---------0-----|
A|---------------------3--3---3-------------|
E|-1--1---1--3--3---3------------0--0---0---|

Parte 2 de 2
   F         G         C
E|------------------------------------------|
B|-1----1----0----0----1--------------------|
G|-2----2----0----0----0--------------------|
D|-3----3----0----0----2--------------------|
A|---------------------3--3---3---3---3-----|
E|-1--1---1--3--3---3-------3---5---7-------|

F          G          C  C7M  E7
  You may say I'm a dreamer
F          G           C   C7M  E7
  But I'm not the only one
F              G          C   C7M  E7
  I hope some day you'll join us
F          G          C        (Frase)
  And the world will be as one

[Quarta Parte]

C             C7M    F
  Imagine no possessions
C              C7M  F
  I wonder if you  can
C                   C7M  F  
  No need for greed or  hunger
C               C7M  F
  A brotherhood of  man

[Refrão]

F         C/E          Dm  Dm/C
  Imagine all the people
  G              G7
Sharing all the world

[Terceira Parte]

F          G          C  C7M  E7
  You may say I'm a dreamer
F          G           C   C7M  E7
  But I'm not the only one
F              G          C   C7M  E7
  I hope some day you'll join us
F          G          C
  And the world will be as one
Composição de John Lennon / Yoko Ono
Colaboração e revisão:
  • Thiago Almeida
  • Simplificar cifra
    • ½ Tom
    • A
    • Bb
    • B
    • C
    • Db
    • D
    • Eb
    • E
    • F
    • F#
    • G
    • Ab
  • Adicionar à lista

    0 comentários

    Ver todos os comentários
    00:00 / 00:00
    Outros vídeos desta música
    Repetir Qualidade Automático
    Outros vídeos desta música
    00:00 / 00:00
    Automático
    Capítulos
    • Tocando a Música
    • Apresentação / Equipamentos
    • Ensinando Acordes da Introdução e Primeira Parte
    • Tocando Introdução e Primeira Parte
    • Ensinando Ritmo da Introdução
    • Ensinando Ritmo da Primeira Parte
    • Ensinando Acordes do Refrão
    • Tocando o Refrão
    • Ensinando Ritmo do Refrão - Parte 1 de 2
    • Ensinando Ritmo do Refrão - Parte 2 de 2
    • Ensinando Acordes da Terceira Parte
    • Tocando a Terceira Parte
    • Ensinando Ritmo da Terceira Parte - Parte 1 de 2
    • Ensinando Ritmo da Terceira Parte - Parte 2 de 2
    • Dica
    • Encerramento

    Cifra Club Pro

    Aproveite o Cifra Club com benefícios exclusivos e sem anúncios
    Cifra Club Pro
    Aproveite o Cifra Club com benefícios exclusivos e sem anúncios
    OK