Cifra Club

Aprenda

She's Lost Control

Joy Division

Cifra: Versão 3 (violão e guitarra)
tom: F

Tuning: Standard


e|--4-4---6-6---7-7---9--9----11-11-11-11-11-11-11-11-----------------------|
B|--4-4---6-6---7-7---9--9----11-11-11-11-11-11-11-11-----------------------|
G|--5-5---7-7---8-8---10-10---12-12-12-12-12-12-12-12-----------------------|
D|--6-6---8-8---9-9---11-11---13-13-13-13-13-13-13-13-----------------------|
A|--6-6---8-8---9-9---11-11---13-13-13-13-13-13-13-13-----------------------|
E|--4-4---6-6---7-7---9--9----11-11-11-11-11-11-11-11-----------------------|

e|--4-4---6-6---7-7---9--9----6-6-6-6-6-6-6-6-------------------------------|
B|--4-4---6-6---7-7---9--9----6-6-6-6-6-6-6-6-------------------------------|
G|--5-5---7-7---8-8---10-10---7-7-7-7-7-7-7-7-------------------------------|
D|--6-6---8-8---9-9---11-11---8-8-8-8-8-8-8-8-------------------------------|
A|--6-6---8-8---9-9---11-11---8-8-8-8-8-8-8-8-------------------------------|
E|--4-4---6-6---7-7---9--9----6-6-6-6-6-6-6-6-------------------------------|

============================================================================
Composição de Bernard Sumner / Ian Curtis / Peter Hook / Stephen Morris
1.486 exibições
    • ½ Tom
    • A
    • Bb
    • B
    • C
    • Db
    • D
    • Eb
    • E
    • F
    • F#
    • G
    • Ab
  • Adicionar à lista

    0 comentários

    Ver todos os comentários

    Conseguiu tocar?

    1 Tocaram 0 Ainda não

    Grave um vídeo tocando She's Lost Control e nos envie!

    00:00 / 00:00
    Outros vídeos desta música
    Repetir Qualidade Automático
    Outros vídeos desta música
    00:00 / 00:00
    Automático

    Cifra Club Pro

    Aproveite o Cifra Club com benefícios exclusivos e sem anúncios
    Cifra Club Pro
    Aproveite o Cifra Club com benefícios exclusivos e sem anúncios
    OK