Cifra Club

California Gurls

Katy Perry

Tab de baixo: Principal
exibições 1.604
Intro:
G|--------3---------7---7----|
D|---------------------------|
A|----0h1-----3---5---5------|
E|-5-------------------------|

Verso: 
G|--------3---------7---7----|
D|---------------------------|
A|----0h1-----3---5---5------|
E|-5-------------------------|

Primeira Ponte:
G|--------------------------------------|
D|--------------------------------------|
A|-33333333-55555555-11111111-11111111--|
E|--------------------------------------|

G|--------------------------------3-3---|
D|--------------------------------------|
A|-33333333-55555555-11111111-1111-1-1--|
E|--------------------------------------|

Refrão:
G|--------3---------7---7----|
D|---------------------------|
A|----0h1-----3---5---5------|
E|-5-------------------------|

G|----------3-------------7---7-----------3------------7---7--|
D|------------1h3---------------------------3h5---------------|
A|------0h1--------3-3--5---5---------0h1-------3-3--5---5----|
E|-5-5----------------------------5-5-------------------------|

Verso:
G|--------3---------7---7----|
D|---------------------------|
A|----0h1-----3---5---5------|
E|-5-------------------------|

Segunda Ponte:
G|--------------------------------------|
D|--------------------------------------|
A|-33333333-55555555-11111111-11111111--|
E|--------------------------------------|
                            
G|--------------75------------------------------------|
D|----------------75----------------------------------|
A|-33333333-5555-----11111111/11-11-11-11-11-11-11-11-|
E|----------------------------------------------------|

Refrão:
G|--------3---------7---7----|
D|---------------------------|
A|----0h1-----3---5---5------|
E|-5-------------------------|

G|----------3-------------7---7-----------3------------7---7--|
D|------------1h3---------------------------3h5---------------|
A|------0h1--------3-3--5---5---------0h1-------3-3--5---5----|
E|-5-5----------------------------5-5-------------------------|

Rap:
(Snoop Dog)
G|-------------------7---7---|
D|---------------------------|
A|----0h1-1----3---5---5-----|
E|-5-------------------------|

Refrão:
G|--------3---------7---7----|
D|---------------------------|
A|----0h1-----3---5---5------|
E|-5-------------------------|

G|----------3-------------7---7-----------3------------7---7--|
D|------------1h3---------------------------3h5---------------|
A|------0h1--------3-3--5---5---------0h1-------3-3--5---5----|
E|-5-5----------------------------5-5-------------------------|
Colaboração e revisão:
  • Mansinho Jr.

0 comentários

    mostrar mais comentários

    Conseguiu tocar?

    1tocaram0ainda não

    Grave um vídeo tocando California Gurls e mande pra gente!

    00:00 / 00:00
    outros vídeos desta música
    repetirqualidadeautomática
    Outro vídeos desta música
      00:00 / 00:00
      automática
      OK