Cifra Club

Teenage Dream

Katy Perry

Tab de baixo: Principal
exibições 2.098
Intro:
G|-------------5-----3---3---------------------------------------|
D|--------6------------------------------------------------------|
A|---------------------------------------------------------------|  (8x)
E|---------------------------------------------------------------| 
	
Refrão:
G|---------------------------------------------------------------|
D|---------------------------------------------------------------|
A|---------------------------------------------------------------|  (8x) 
E|---1-----5----3--3---------------------------------------------| 

Verso:
G|-------------5-----3---3---------------------------------------|
D|--------6------------------------------------------------------|
A|---------------------------------------------------------------|  (8x)
E|---------------------------------------------------------------| 

Refrão:
G|---------------------------------------------------------------|
D|---------------------------------------------------------------|
A|---------------------------------------------------------------|
E|---1-----5----3--3---------------------------------------------|  (12x)

Ponte:
G|---------------------------------------------------------------|
D|----------------5----3--3~-------------------------------------|
A|--------6~-----------------------------------------------------|  (2x)
E|---------------------------------------------------------------| 

Refrão:
G|---------------------------------------------------------------|
D|---------------------------------------------------------------|
A|---------------------------------------------------------------|  (12x)
E|---1-----5----3--3---------------------------------------------|

0 comentários

    mostrar mais comentários

    Conseguiu tocar?

    0tocaram0ainda não

    Grave um vídeo tocando Teenage Dream e mande pra gente!

    00:00 / 00:00
    outros vídeos desta música
    repetirqualidadeautomática
    Outro vídeos desta música
      00:00 / 00:00
      automática
      OK