Cifra Club

And I Love Her

Kurt Cobain

Cifra: Principal (violão e guitarra)
Selo Cifra Club: esta cifra foi revisada para atender aos critérios oficiais da nossa Equipe de Qualidade.
tom: Ebm (forma dos acordes no tom de Em) Afinação: Eb Ab Db Gb Bb Eb
[Intro] A5  E5
[Riff 1 Riff 2  Riff 1]

[Tab - Riff 1]

E|-----------------------------------------|
B|-----------------------------------------|
G|-----------------------------------------|
D|-----------------------------------------|
A|----3--2--0------------------------------|
E|-3---------------------------------------|

[Tab - Riff 2]

E|-----------------------------------------|
B|-----------------------------------------|
G|-----------------------------------------|
D|-----------------------------------------|
A|----3--2---------------------------------|
E|-3--------0------------------------------|

A5           E5
She gives me everything
[<B>A5B>        <B>E5B>Riff 1]
And tenderly
A5          E5
The kiss my lover brings
C5             D5
She brings to me
      G5 Riff 1
And I love her

A5             E5
Bright are the stars that shine
A5          E5 Riff 1
Dark is the sky
A5           E5
I know this love of mine
C5          D5
Will never die
      G5
And I love her

B5          G5     B5          G5
A love like ours, will never die
B5         G5                 A4 Riff 1
As long as I hold you near me

A5             E5 Riff 1
Bright are the stars that shine
A5          E5 Riff 1
Dark is the sky
A5           E5
I know this love of mine
C5          D5
Will never die
      G5
And I love her

[Final] A5  E5  A5  E5
[Riff 1 Riff 2   Riff 1  Riff 2]
Outros vídeos desta música
    71.439 exibições
      • ½ Tom
      • Am
      • Bbm
      • Bm
      • Cm
      • C#m
      • Dm
      • Ebm
      • Em
      • Fm
      • F#m
      • Gm
      • G#m
    • Adicionar à lista

    Afinação da cifra

    Afinador online

      0 comentários

      Ver todos os comentários

      Entre para o Cifra Club PRO

      Tenha acesso a benefícios exclusivos no App e no Site

      • Chega de anúncios

      • Badges exclusivas

      • Mais recursos no app do Afinador

      • Atendimento Prioritário

      • Aumente seu limite de lista

      • Ajude a produzir mais conteúdo

      Cifra Club Pro

      Aproveite o Cifra Club com benefícios exclusivos e sem anúncios
      Cifra Club Pro
      Aproveite o Cifra Club com benefícios exclusivos e sem anúncios
      Ops (: Contenido disponible sólo en portugués.
      OK