Cifra Club

The Happy Guitar

Kurt Cobain

Cifra: Principal (violão e guitarra)
Selo Cifra Club: esta cifra foi revisada para atender aos critérios oficiais da nossa Equipe de Qualidade.
tom: Ebm
E|----------------------------------------------------------------------------------|
B|-----------------9----------------------------9-----------------------------------|
G|------10---------------7-------------10-------------7-----------------------------|
D|----------8---------8--------------------8-------8--------------------------------|
A|----------------------------------------------------------------------------------|
E|--6------------------------------6------------------------------------------------|

E|-----------------------3---------------3----3------6-----------4------------------|
B|--------------------3---------------6-----6--------6----6-------------3-----------|
G|--------0-------4---------------4------------------x-------0-------3--------------|
D|--------3-----------------0--0---------------------x-----------3------------------|
A|-----5---------------------------------------------x------------------------------|
E|--3------------------------------------------------6------------------------------|

E|6-----------4---------------------------3--------------3----3---------|
B|6----6-------------3-----------------3--------------6----6--6---------|
G|x-------0-------3-------------0---4--------------4--------------------|
D|x-----------3-----------------3-----------0---0-----------------------|
A|x---------------------------5-----------------------------------------|
E|6------------------------3--------------------------------------------|


E|-----------------5-----------------5------5-------------------6-------------6---6--|
B|--------------5----------------8-------8--------------------6-------------9---9----|
G|-------0----6--------------6------------------------0----7--------------7----------|
D|-------5------------0---0---------------------------6------------0--0--------------|
A|----7--------------------------------------------8---------------------------------|
E|-5--------------------------------------------6------------------------------------|

E|-----------------7--------------7--7------x--x--x--x--x--x--x----------------------|
B|---------------7---------------7--7-------8--8--8--8--8--8--7----------------------|
G|--------0----8---------------8------------9--9--9--9--9--9--8--------8--8----------|
D|--------7------------0----0---------------8--8--8--8--8--8--8----------------------|
A|-----9------------------------------------x--x--x--x--x--x--x----------------------|
E|--7---------------------------------------x--x--x--x--x--x--x----------------------|
                                            d  up d  up d  d  d
Outros vídeos desta música
    265 exibições
      • ½ Tom
      • Am
      • Bbm
      • Bm
      • Cm
      • C#m
      • Dm
      • Ebm
      • Em
      • Fm
      • F#m
      • Gm
      • G#m
    • Adicionar à lista

    Afinação da cifra

    Afinador online

      0 comentários

      Ver todos os comentários

      Entre para o Cifra Club PRO

      Tenha acesso a benefícios exclusivos no App e no Site

      • Chega de anúncios

      • Badges exclusivas

      • Mais recursos no app do Afinador

      • Atendimento Prioritário

      • Aumente seu limite de lista

      • Ajude a produzir mais conteúdo

      Cifra Club Pro

      Aproveite o Cifra Club com benefícios exclusivos e sem anúncios
      Cifra Club Pro
      Aproveite o Cifra Club com benefícios exclusivos e sem anúncios
      Ops (: Contenido disponible sólo en portugués.
      OK