Cifra Club

Letters To Frances

Kurt Cobain

Cifra: Principal (violão e guitarra)
Selo Cifra Club: esta cifra foi revisada para atender aos critérios oficiais da nossa Equipe de Qualidade.
tom: F#
E|---------------------------------------------------------------------------|
B|---------------------------------------------------------------------------|
G|---------------------------------------------------------------------------|
D|-----3------4----3----1-----------3--------3--------4-----3----1-----------|
A|--4----4------------------4-----------4-------4--------------------4-------|
E|---------------------------------------------------------------------------|

E|-----------------------------------------------------------------------------------------|
B|-----------------------------------------------------------------------------------------|
G|-----------------------------------------------------------------------------------------|
D|----3-----4---3---1------------3---------4-----6----4----3-----------3-----4---6---4---3-|
A|--2---2--------------2-----4-------4--------------------------2--2------2----------------|
E|-----------------------------------------------------------------------------------------|

The song is built around these parts.

[Chorus]

E|--x---x----x--x--x--x--x----------------------------------------------------------|
B|--x---x----x--x--x--x--x----------------------------------------------------------|
G|--x---x----x--x--x--x--x-------s| everal times--------------------------------------|
D|--3---3----1--1--1--1--1----------------------------------------------------------|
A|--4---4----2--2--2--2--2----------------------------------------------------------|
E|--4---4----2--2--2--2--2----------------------------------------------------------|
Outros vídeos desta música
    501 exibições
      • ½ Tom
      • A
      • Bb
      • B
      • C
      • Db
      • D
      • Eb
      • E
      • F
      • F#
      • G
      • Ab
    • Adicionar à lista

    Afinação da cifra

    Afinador online

      0 comentários

      Ver todos os comentários

      Entre para o Cifra Club PRO

      Tenha acesso a benefícios exclusivos no App e no Site

      • Chega de anúncios

      • Badges exclusivas

      • Mais recursos no app do Afinador

      • Atendimento Prioritário

      • Aumente seu limite de lista

      • Ajude a produzir mais conteúdo

      Cifra Club Pro

      Aproveite o Cifra Club com benefícios exclusivos e sem anúncios
      Cifra Club Pro
      Aproveite o Cifra Club com benefícios exclusivos e sem anúncios
      Ops (: Contenido disponible sólo en portugués.
      OK