Cifra Club

Aprenda

The Power Of Love

Landau

Cifra: Principal (violão e guitarra)
Já pensou em usar uma coleção de roupas do Cifra Club? Responda as perguntas abaixo e nos ajude nessa missão! →
tom: D
Intro:
     D                A               G               D
E|---2------2---------------2---------------2---------------2----------------------------|
B|---3--3-----3---3-----3-----3---3-----3-----3---3-----3-----3---3----------------------|
G|---2----2-----2---------2-----2---------2-----2---------2-----2------------------------|
D|---0----------------x---------------x---------------0----------------------------------|
A|---x----------------0---------------x---------------x----------------------------------|
E|---x----------------x---------------3---------------x----------------------------------|
   D                       A                    G                     D
E|-10-10-10----------10-10-9-9-9----------------10-10-10---------------------------|
B|----------10-10-10-------------10-10-10-10-10----------8-8-8--10/12-10~~---------|
G|---------------------------------------------------------------------------------|
D|---------------------------------------------------------------------------------|
A|---------------------------------------------------------------------------------|
E|---------------------------------------------------------------------------------|
   D                       A                    G                        D
E|-10-10-10----------10-10-9-9-9----------------10-10-10---------------------------|
B|----------10-10-10-------------10-10-10-10-10----------8-8-8--10/12-12/10-10-10~~|
G|---------------------------------------------------------------------------------|
D|---------------------------------------------------------------------------------|
A|---------------------------------------------------------------------------------|
E|---------------------------------------------------------------------------------|

       D             A
Here I am because of you
       G       D
In the name of love
       D              A
I´m so tired to walk alone
       G                D
In the darkness of this road

Bm
I just wanna talk to god
D
About my plans and all my desires
Bm
My confessions and all my mistakes
D
My Fellings

My secrets pleasures
            Em       G
Love is the center
      A         D
Of my universe

Refrão 2x:
             G
The power of love
                 D
Can´t change the word
             G
The power of love
            D
Can save my soul
            Em      G
Love is the center
      A         D
Of my universe
Solo:
                  D       A  G    D   D          A       G     D
E|-----------------------------------------------------------------------------|
B|--------------------------------------------------------------10~~-----------|
G|---------------/7~--7/6-6--7--------/7~---7/6-6~--6/7-7~--7/9----------------|
D|--4/7-7/4-4/2---------------5/7-7~-------------------------------------------|
A|-----------------------------------------------------------------------------|
E|-----------------------------------------------------------------------------|

Bm
I just wanna talk to god
D
About my plans and all my desires
Bm
My confessions and all my mistakes
D
My Fellings

My secrets pleasures
            Em       G
Love is the center
      A         D
Of my universe

Refrão 2x:
             G
The power of love
                 D
Can´t change the word
             G
The power of love
            D
Can save my soul
            Em      G
Love is the center
      A         D
Of my universe
   Bm       D               Bm      D               Em       G        A     D
   UhHuu                    UhHuu                   UhHuuuu  UhHuuu   Uhhh  Huuu
E|-2------9h10-10-9h10-10/--2-------10/9--9/5--5~---0--------3--------0-----2----------------|
B|-3------------------------3-----------------------0--------3--------3-----3----------------|
G|-4------------------------4-----------------------0--------0--------3-----2----------------|
D|-4------------------------4-----------------------2--------0--------3-----0----------------|
A|-2------------------------2-----------------------2--------2--------0-----x----------------|
E|-x------------------------x-----------------------0--------3--------x-----x----------------|

             G
The power of love
                 D
Can´t change the word
             G
The power of love
            D
Can save my soul
            Em      G
Love is the center
      A         D
Of my universe

            Em      G
Love is the center
      A         D
Of my universe

            Em      G
Love is the center
      A         D
Of my universe

            Em      G
Love is the center
      A         D
Of my universe
Finaliza assim:
     D (8x)
E|-----------2----------------------------------------------------------------------------|
B|-------3-----3---2----------------------------------------------------------------------|
G|-----2---2-----2------------------------------------------------------------------------|
D|---0---------------0--------7-7-7--4-4-4-4-4--5-5-5--2-2-2-2-2--4-4-4--2-2-2-0-0--------|
A|----------------------------------------------------------------------------------------|
E|----------------------------------------------------------------------------------------|
Composição de Landau / Washington Del Buffalo
Colaboração e revisão:
  • Marcão Bicudo
279 exibições
    • ½ Tom
    • A
    • Bb
    • B
    • C
    • Db
    • D
    • Eb
    • E
    • F
    • F#
    • G
    • Ab
  • Adicionar à lista

    0 comentários

    Ver todos os comentários

    Conseguiu tocar?

    1 Tocaram 0 Ainda não

    Grave um vídeo tocando The Power Of Love e nos envie!

    00:00 / 00:00
    Outros vídeos desta música
    Repetir Qualidade Automático
    Outros vídeos desta música
    00:00 / 00:00
    Automático

    Cifra Club Pro

    Aproveite o Cifra Club com benefícios exclusivos e sem anúncios
    Cifra Club Pro
    Aproveite o Cifra Club com benefícios exclusivos e sem anúncios
    OK