Cifra Club

Colorir de Amor

Irmão Lázaro

Cifra: Principal (violão e guitarra)
tom: D
E|------------------------------------------------------|
B|------------------------------------------------12-12-|
G|----------------------------------------7-9-11--------|
D|--12-12--11-9-7--7h9--7h9-7--------/7-----------------|
A|-----------------------------10-9---------------------|
E|------------------------------------------------------|

E|------------------------------------------------------|
B|-10----10---------------------------------------------|
G|----12------------9--11--9----------------------------|
D|----------11--12------------12-11-12------------------|
A|------------------------------------------------------|
E|------------------------------------------------------|

00:00 / 00:00
Outros vídeos desta música
Repetir
Outros vídeos desta música
Composição de Lázaro
Colaboração e revisão:
  • Thiago silva
16.225 exibições
    • ½ Tom
    • A
    • Bb
    • B
    • C
    • Db
    • D
    • Eb
    • E
    • F
    • F#
    • G
    • Ab
  • Adicionar à lista

    0 comentários

    Ver todos os comentários
    00:00 / 00:00

    Cifra Club Pro

    Aproveite o Cifra Club com benefícios exclusivos e sem anúncios
    Cifra Club Pro
    Aproveite o Cifra Club com benefícios exclusivos e sem anúncios
    OK