Cifra Club

Quase Sem Querer

Legião Urbana

Cifra: Versão 3 (violão e guitarra)
tom: G
 G Am C D G Am C D
E|----------------------------------------------|
B|----------------------------------------------|
G|-4---------------------4----------------------|
D|---5--7-5----5--4-5------5--7-5----5-7--------|
A|-----------7---------5----------7-------7-5-5-|
E|----------------------------------------------|

 G Am C D G Am C D
E|--------------------------------------------------------|
B|--------------------------------------------------------|
G|-4-7-7-4--7-4------4-7-7-4--7-4----4-----------5-5------|
D|--------------7-5--------------------5--7-5---------4-5-|
A|---------------------------------5----------7-----------|
E|--------------------------------------------------------|

 C D C D G Em Bm Am
E|-----------------------------------------------------------|
B|-----------------------------5-----------------------------|
G|-5-4--------------4-4-----------7-4-------4-5-4--5-4-5-4-5-|
D|------7-5----5-7------7-5--5--------7-\-7------------------|
A|----------7------------------------------------------------|
E|-----------------------------------------------------------|

 D
E|-------------------------------------------|
B|-------------------------------------------|
G|-5-4----5-4-5-4-5--5-4-5-4--5-4-5-4-5--5--7|
D|-------------------------------------------|
A|-----7-------------------------------------|
E|-------------------------------------------|

 G Am C D G Am C D
E|----------------------------------------------------------------|
B|----------------------------------------------------------------|
G|-4-7-7-4--7----4-5-7-9--7----4-4------------------------4-------|
D|------------7--------------------7-5--7-5-7-5----5-7-5----7-5---|
A|--------------------------5--------------------7--------------7-|
E|----------------------------------------------------------------|

 G Am C D G Am C D
E|------------------------------------------------------------|
B|------------------------------------------------------------|
G|-----------------4(x4)---------4------------------------4---|
D|-5(x4)--5---------------7--------7-5--7-5-7-5----5-7-5----7-|
A|----------7-7-5-----------5-5------------------7------------|
E|------------------------------------------------------------|

 C D C D G Em Bm Am D
E|-----------------------------------------------------------------|
B|-8--5------------------------------------------------------------|
G|------7-------4-4--4----------------4----------------------------|
D|---------5-7---------7-5--4-----------7--7----5---4--5-4-------5-|
A|----------------------------5-7--7----------7---7---------7-5----|
E|-----------------------------------------------------------------|

[Refrão]

 F G F G D G
E|----------------------------------------------------------------|
B|----------------------------------------------------------------|
G|-5-4-5-4----------------4----5-4-5-4----------------4-----------|
D|----------7-5-7-5--7-5----5-----------7-5-7-5--7-5----5--7-4--5-|
A|----------------------------------------------------------------|
E|----------------------------------------------------------------|

 G Am C D G Am C D
E|----------------------------------------------------------------|
B|-8-8-8--8-5----8-8-5--5-----------------------------------------|
G|------------7-----------7-7-5--4-4------------------------------|
D|-----------------------------------7-5-7--7-5-5----5-5-7--------|
A|------------------------------------------------7---------7-5---|
E|----------------------------------------------------------------|

 G Am C D G Am C D
E|----------------------------------------------------------------|
B|----------------------------------------------------------------|
G|-4-7-7-4--7------4-7-7-4--7------4-4----------------------------|
D|------------7-5-------------7--------7-5--7-5----5-5-5-7--4-----|
A|------------------------------5---------------7-------------5-5-|
E|----------------------------------------------------------------|

 C D C D G Em Bm Am
E|--------------------------------------------------------|
B|--------------------------------------------------------|
G|-5-4------------4-----4-------------------------------4-|
D|------7-5--5-7----------7-5--5--------5----5---5----5---|
A|-------------------5-----------7-7--7---7----7---7------|
E|--------------------------------------------------------|

 D
E|----------------------|
B|----------------------|
G|----------------------|
D|----4------5-4------5-|
A|-5----7-5-------7-5---|
E|----------------------|
Composição de Dado Villa-Lobos / Renato Rocha / Renato Russo
Colaboração e revisão:
300.003 exibições
  • Simplificar cifra
    • ½ Tom
    • A
    • Bb
    • B
    • C
    • Db
    • D
    • Eb
    • E
    • F
    • F#
    • G
    • Ab
  • Adicionar à lista

    0 comentários

    Ver todos os comentários
    00:00 / 00:00
    Outros vídeos desta música
    Repetir Qualidade Automático
    Outros vídeos desta música
    00:00 / 00:00
    Automático
    Capítulos
    • Início
    • Tocando a música
    • Acordes da introdução e primeira parte
    • Tocando introdução e primeira parte
    • Ensinando riff da introdução
    • Ensinando ritmo da música
    • Acordes e ritmo da segunda parte
    • Tocando segunda parte
    • Acordes e ritmo da terceira parte
    • Tocando terceira parte
    • Encerramento

    Cifra Club Pro

    Aproveite o Cifra Club com benefícios exclusivos e sem anúncios
    Cifra Club Pro
    Aproveite o Cifra Club com benefícios exclusivos e sem anúncios
    OK