Cifra Club

Vinte e Nove

Legião Urbana

Cifra: Versão 3 (violão e guitarra)
tom: G
Introdução:   G   C   D   C   G   C   D   C

       ( Junto à introdução o baixo faz uma variaçao de notas passando com Am ).

Intro 2ºViolão ( Bandolim ). Obs: Notas entre (*) são tocadas rápidas. Uma nota só tocada 3X.

------------------------------------------------------------------------
------------------------------------------------------------------------
---2--4--(555*)--4--2--(999)--7~~   2--4--(555*)--4--2---(111111*)--12--
------------------------------------------------------------------------
------------------------------------------------------------------------
------------------------------------------------------------------------

------------------------------------------------------------------------
------------------------------------------------------------------------
---2--4--(555*)--4--2--(999)--7~~   2--4--(555*)--4--2---(111111*)--12--
------------------------------------------------------------------------
------------------------------------------------------------------------
------------------------------------------------------------------------

Durante toda música também há uuma variação de notas do baixo.

  G                   C         D
Perdi vinte em vinte e nove amizades
    G             C             D
Por conta de uma pedra em minhas mãos 
         G/E                        Am
Me embriaguei morrendo vinte e nove vezes
    G                  F       Em      
Estou aprendendo a viver sem você
   C       G/E     Am         D
Já que você não me quer mais.

     G                 C          D
Passei vinte e nove meses n'um navio
     G         C           D
E vinte e nove dias na prisão
       G/E                   Am
E aos vinte e nove, com retorno de saturno
    G      F     Em
Decidi começar a viver.

  C               G/E
Quando você deixou de me amar
               Am  D                  G  C  D  C
Aprendi a perdoar... e a pedir perdão.

------------------------------------------------------------------------
------------------------------------------------------------------------
---2--4--(555*)--4--2--(999)--7~~   2--4--(555*)--4--2---(111111*)--12--
------------------------------------------------------------------------
------------------------------------------------------------------------
------------------------------------------------------------------------

------------------------------------------------------------------------
------------------------------------------------------------------------
---2--4--(555*)--4--2--(999)--7~~   2--4--(555*)--4--2---(111111*)--12--
------------------------------------------------------------------------
------------------------------------------------------------------------
------------------------------------------------------------------------

   G                    C
E vinte nove anjos me saudaram
       D                 C     G  C  D  C     G  C  D  C 
tive vinte nove amigos outra vez.

------------------------------------------------------------------------
------------------------------------------------------------------------
------------------12--11------------------------11--12------------------   
------------------------------------------------------------------------
---0--2--3--2--0---------------0--2--3--2--0----------------------------
------------------------------------------------------------------------

------------------------------------------------------------------------
------------------------------------------------------------------------
------------------12--11------------------------11--14 14 14 -- 14--14-- 
------------------------------------------------------------------------
---0--2--3--2--0---------------0--2--3--2--0----------------------------
------------------------------------------------------------------------

Sobe o   A    D  E  D  A  D  E  D

------------------------------------------------------------------------
------------------------------------------------------------------------
------------------------------------------------------------------------
------------------------------------------------------------------------  2X
--3--4--5--4--3---  9--7~~  ----3--4--5--4--3-- -- 11--12~~  -----------
------------------------------------------------------------------------

aumenta a velocidade:  A  D  E    D  A  D  E    D  A  D  E    D  A  D  E...  FIM..
Composição de Renato Russo
Colaboração e revisão:
  • Fabio Montenegro
  • Pedro Moura
88.497 exibições
    • ½ Tom
    • A
    • Bb
    • B
    • C
    • Db
    • D
    • Eb
    • E
    • F
    • F#
    • G
    • Ab
  • Adicionar à lista

    0 comentários

    Ver todos os comentários
    00:00 / 00:00
    Outros vídeos desta música
    Repetir Qualidade Automático
    Outros vídeos desta música
    00:00 / 00:00
    Automático

    Cifra Club Pro

    Aproveite o Cifra Club com benefícios exclusivos e sem anúncios
    Cifra Club Pro
    Aproveite o Cifra Club com benefícios exclusivos e sem anúncios
    OK