Cifra Club

Aprenda

Velha Porteira

Lourenço e Lourival

Cifra: Principal (violão e guitarra)
Quer fazer aulas de música com a gente? Responda essas perguntas
e nos ajude nesse projeto! →
tom: E
Intro: E B7 E E7 A B7 E B7

E|-------------------12---11--------------------------11--10--9------------------------
B|------------------14---12--------------------------12--9---7-------------------------
G|-------1------1---------------------------------------------------1------1------------
D|-2--4---2--4-----------------1--2--4---1--2--4---------------2--4---2--4---4-2-0-----
A|---------------------------------------------------------------------------- -----4-2-0
E|-----------------------------------------------------------------------------------------

----------------------------------------------------|
----------------------------------------------------|
----------------------------------------------------|
------------------------------1--2------------------|
------0-1-2---1h2---1h2---2-4-------2---------------|
-----4-----------------0---------------4--0---------|

E
Ao passar pela velha porteira
                                 B7
Senti  minha terra mais perto de mim

De emoção eu estava chorando
                A               B7       E
Porque minha angústia chegava ao fim

Eu confesso que era meu  sonho
        E7                 A
Rever a fazenda onde me criei
                     E                  B7
Não via chegar o momento de abraçar de novo
                                   E
Meu querido povo que um dia eu deixei

E
Que surpresa cruel me aguardava
                               B7
Ao ver a fazenda como transformou

Quase todos dali se mudaram
        A             B7       E
E a velha colônia deserta ficou

Os amigos que ali permanecem
             E7                  A
Transformaram tanto que nem conheci
                 E                   B7
E eles nem me conheceram e nem perceberam
                                 E
Que os anos passaram e eu envelheci

E
E você minha velha porteira
                              B7
Também não está como outrora deixei

Seus mourões  pelo tempo roídos
            A     B7         E
No solo caídos também encontrei

Já não ouço as suas batidas
           E7                       A
Seu triste rangido lembranças me traz
                  E                 B
Porteira, na realidade, você é a saudade
                                     E
Do tempo da infância que  não volta mais
Composição de Helio Alves / Ziltinho
199.198 exibições
    • ½ Tom
    • A
    • Bb
    • B
    • C
    • Db
    • D
    • Eb
    • E
    • F
    • F#
    • G
    • Ab
  • Adicionar à lista

    0 comentários

    Ver todos os comentários
    00:00 / 00:00
    Outros vídeos desta música
    Repetir Qualidade Automático
    Outros vídeos desta música
    00:00 / 00:00
    Automático

    Cifra Club Pro

    Aproveite o Cifra Club com benefícios exclusivos e sem anúncios
    Cifra Club Pro
    Aproveite o Cifra Club com benefícios exclusivos e sem anúncios
    OK