Cifra Club

Aprenda

Permanecer (part. MC G15)

Lucas Lucco

Cifra: Principal (violão e guitarra)
Tom: F# (forma dos acordes no tom de E) Capotraste na 2ª casa
[Intro] C#m  F#m  B  E
        C#m  F#m  B  E

 C#m           F#m
Nosso amor é uma piada
  B              E
Que de tão sem graça a gente tem que rir
  C#m            F#m
Pra não piorar, só pra não chorar
 B                  E
Vou adiando nosso triste fim

C#m                  F#m
Empurrando com a barriga
              B
Já não temos vida
          E
É ciúmes, é orgulho
            C#m
Tudo vira briga
              F#m
Já não temos vida
          B
É ciúmes, é orgulho
             E
Ou é minha brisa

 C#m                     F#m
Mas acontece é que eu te amo
                      B
E esse seu bumbum chamando
               E
Que me faz permanecer

Me dá prazer

 C#m                     F#m
Mas acontece é que eu te amo
                      B
E esse seu bumbum chamando
               E
Que me faz permanecer

 C#m                     F#m
Mas acontece é que eu te amo
                      B
E esse seu bumbum chamando
               E
Que me faz permanecer

Me dá prazer
 C#m                     F#m
Mas acontece é que eu te amo
                      B
E esse seu bumbum chamando
               E
Que me faz permanecer

Me dá prazer

[Solo] C#m  F#m  B  E
       C#m  F#m  B  E

E|----------------4----------4------------------------|
B|----5---5---5-----7-----5-----7-----5-4-------------|
G|--6---6---6---6-------6---6-------6-----6-----------|
D|----------------------------------------------------|
A|----------------------------------------------------|
E|----------------------------------------------------|

E|----------------4----------4------------7--5-4------|
B|----5---5---5-----7-----5-----7-----5-4--------5----|
G|--6---6---6---6-------6---6-------6-----6--------6--|
D|----------------------------------------------------|
A|----------------------------------------------------|
E|----------------------------------------------------|

 C#m                     F#m
Mas acontece é que eu te amo
                      B
E esse seu bumbum chamando
               E
Que me faz permanecer

Me dá prazer

 C#m                     F#m
Mas acontece é que eu te amo
                      B
E esse seu bumbum chamando
               E
Que me faz permanecer

( C#m  F#m  B  E )
( C#m  F#m  B  E )

 C#m                     F#m
Mas acontece é que eu te amo
                      B
E esse seu bumbum chamando
               E
Que me faz permanecer

Me dá prazer

 C#m                     F#m
Mas acontece é que eu te amo
                      B
E esse seu bumbum chamando
               E
Que me faz permanecer

         F#m
Eu permaneço
 B                  E  C#m
Se ela começa a descer
          F#m
Eu enlouqueço
 B                    E      C#m
Seu bumbum me faz permanecer

         F#m
Eu permaneço
 B                  E  C#m
Se ela começa a descer
          F#m
Eu enlouqueço
 B                    E      C#m
Seu bumbum me faz permanecer

 C#m                     F#m
Mas acontece é que eu te amo
                      B
E esse seu bumbum chamando
               E
Que me faz permanecer

Me dá prazer

 C#m                     F#m
Mas acontece é que eu te amo
                      B
E esse seu bumbum chamando
               E
Que me faz permanecer

 C#m                     F#m
Mas acontece é que eu te amo
                      B
E esse seu bumbum chamando
               E
Que me faz permanecer

Me dá prazer

 C#m                     F#m
Mas acontece é que eu te amo
                      B
E esse seu bumbum chamando
               E
Que me faz permanecer

[Solo] C#m  F#m  B  E
       C#m  F#m  B  E

E|----------------4----------4------------------------|
B|----5---5---5-----7-----5-----7-----5-4-------------|
G|--6---6---6---6-------6---6-------6-----6-----------|
D|----------------------------------------------------|
A|----------------------------------------------------|
E|----------------------------------------------------|

E|----------------4----------4------------7--5-4------|
B|----5---5---5-----7-----5-----7-----5-4--------5----|
G|--6---6---6---6-------6---6-------6-----6--------6--|
D|----------------------------------------------------|
A|----------------------------------------------------|
E|----------------------------------------------------|

 C#m                     F#m
Mas acontece é que eu te amo
                      B
E esse seu bumbum chamando
               E
Que me faz permanecer

Me dá prazer

 C#m                     F#m
Mas acontece é que eu te amo
                      B
E esse seu bumbum chamando
               E
Que me faz permanecer
Composição de Lucas Lucco / Léo Soares / Rodrigo Bikay / Theo Rodrigues / Thi Soares / Kito
89.414 exibições
    • ½ Tom
    • A
    • Bb
    • B
    • C
    • Db
    • D
    • Eb
    • E
    • F
    • F#
    • G
    • Ab
  • Adicionar à lista

    0 comentários

    Mostrar mais comentários

    Conseguiu tocar?

    11 Tocaram 11 Ainda não

    Grave um vídeo tocando Permanecer (part. MC G15) e mande pra gente!

    00:00 / 00:00
    outros vídeos desta música
    repetir qualidade Automático
    Outros vídeos desta música
    00:00 / 00:00
    Automático

    Cifra Club Pro

    Aproveite o Cifra Club com benefícios exclusivos e sem anúncios
    7 dias grátis
    Cifra Club Pro
    Aproveite o Cifra Club com benefícios exclusivos e sem anúncios
    7 dias grátis
    OK