Cifra Club

Aprenda

Seu Amor (part. Isaías Saad)

Ludi Moreira

Cifra: Principal (violão e guitarra)
Tom: Bb (forma dos acordes no tom de G) Capotraste na 3ª casa
[Intro] G  C9  G  C9

(Guitarra sem capo)

E|------------------------------------------|
B|------4~-3~------------4~-3~--------------|
G|-3~---------------3~----------------------|
D|-------------5~---------------5~----------|
A|------------------------------------------|
E|------------------------------------------|

[Primeira Parte]
 
 G               C9
Meu melhor amigo e 
               G
Eu posso o chamar
                  C9
A qualquer hora que
                  Em7  C 
Sei que me atenderá
                  Em7  C
Sei que me atenderá

[Segunda Parte]

G                   C9
E se acaso eu tropeçar
               G
Sei, me segurará
                   C
Se cansar os meus pés 
              Em7  C9
Um colo me dará
             Em7  C9
E me carregará

[Pré-Refrão]

C9                           Em7    D9
E eu não vejo um outro amor como o seu
C9                         Em7    D9
Eu não vejo um outro amor como o seu

[Refrão]

C9
Ah provou o seu amor
                   Em7
Morreu só por me amar
            D9                     C9
Eu era o errado mas tomou o meu lugar
                  D9
Que orgulho de você 
                 Em7
Jesus eu vou gritar que amo você 
   D9
Jesus amo você

[Solo] C9  Em7  D9
       C9  Em7  D9

E|------------------------------------------|
B|-------13/15-15-15-15-15-15---------------|
G|-12-12------------------------------------|
D|------------------------------------------|
A|------------------------------------------|
E|------------------------------------------|

E|------------------------------------------|
B|-------18-18-10-10-10b-10b-10b------------|
G|-12-12------------------------------------|
D|------------------------------------------|
A|------------------------------------------|
E|------------------------------------------|

E|------------------------------------------|
B|-------13/15-15-15-15-15-15---------------|
G|-12-12------------------------------------|
D|------------------------------------------|
A|------------------------------------------|
E|------------------------------------------|

E|------------------------------------------|
B|-------18-18-10-10-10b-10b-10b11~---------|
G|-12-12------------------------------------|
D|------------------------------------------|
A|------------------------------------------|
E|------------------------------------------|

[Segunda Parte]

G                   C9
E se acaso eu tropeçar
               G
Sei, me segurará
                   C
Se cansar os meus pés 
              Em7  C9
Um colo me dará
             Em7  C9
E me carregará

[Pré-Refrão]

C9                           Em7    D9
E eu não vejo um outro amor como o seu
C9                         Em7    D9
Eu não vejo um outro amor como o seu

C9                         Em7    D9
Eu não vejo um outro amor como o seu
C9                         Em7   D9
Eu não vejo um outro amor como o seu

[Refrão]

C9 
Ah provou o seu amor
                   Em7
Morreu só por me amar
            D9                     C9
Eu era o errado mas tomou o meu lugar
                  D9
Que orgulho de você 
                 Em7
Jesus eu vou gritar que amo você 
   D9
Jesus amo você

C9 
Ah provou o seu amor
                   Em7
Morreu só por me amar
            D9                     C9
Eu era o errado mas tomou o meu lugar
                  D9
Que orgulho de você 
                 Em7
Jesus eu vou gritar que amo você 
   D9
Jesus amo você

[Solo] C9  Em7  D9
       C9  Em7  D9

E|------------------------------------------|
B|-------13/15-15-15-15-15-15---------------|
G|-12-12------------------------------------|
D|------------------------------------------|
A|------------------------------------------|
E|------------------------------------------|

E|------------------------------------------|
B|-------18-18-10-10-10b-10b-10b------------|
G|-12-12------------------------------------|
D|------------------------------------------|
A|------------------------------------------|
E|------------------------------------------|

E|------------------------------------------|
B|-------13/15-15-15-15-15-15---------------|
G|-12-12------------------------------------|
D|------------------------------------------|
A|------------------------------------------|
E|------------------------------------------|

E|------------------------------------------|
B|-------18-18-10-10-10b-10b-10b11~---------|
G|-12-12------------------------------------|
D|------------------------------------------|
A|------------------------------------------|
E|------------------------------------------|

[Refrão]

C9 
Ah provou o seu amor
                   Em7
Morreu só por me amar
            D9                     C9
Eu era o errado mas tomou o meu lugar
                  D9
Que orgulho de você 
                 Em7
Jesus eu vou gritar que amo você 
   D9
Jesus amo você

[Refrão]

C9 
Ah provou o seu amor
                   Em7
Morreu só por me amar
            D9                     C9
Eu era o errado mas tomou o meu lugar
                  D9
Que orgulho de você 
                 Em7
Jesus eu vou gritar que amo você 
   D9        C9
Jesus amo você
Colaboração e revisão:
  • Lucas Kappaun
  • Douglas Nazário
78.153 exibições
    • ½ Tom
    • A
    • Bb
    • B
    • C
    • Db
    • D
    • Eb
    • E
    • F
    • F#
    • G
    • Ab
  • Adicionar à lista

    0 comentários

    Mostrar mais comentários

    Conseguiu tocar?

    15 Tocaram 23 Ainda não

    Grave um vídeo tocando Seu Amor (part. Isaías Saad) e mande pra gente!

    00:00 / 00:00
    outros vídeos desta música
    repetir qualidade Automático
    Outros vídeos desta música
    00:00 / 00:00
    Automático

    Cifra Club Pro

    Aproveite o Cifra Club com benefícios exclusivos e sem anúncios
    Cifra Club Pro
    Aproveite o Cifra Club com benefícios exclusivos e sem anúncios
    OK