Cifra Club

La pena vuela

Manuel Garcia

Cifra: Principal (violão e guitarra)
tom: Bm
    D# *           A# *          Bm          G           F#m 
E|-----------0|-------------|-------------|-------------|------------|
B|-----3------|-----------0-|-----------3-|-----------0-|------------|
G|---2-----2--|-----3-------|-----4-------|-----0-------|----------2-|
D|-4-----4----|---2-----2---|---4-----4---|---0-----0---|-----4------|
A|------------|-4-----4-----|-2-----2-----|-------------|---4----4---|
E|------------|-------------|-------------|-3-----3-----|-2-----2----|

    F#                           D                  E 
E|---------------------------|-------2-----2-|------------------------|
B|---------------------------|-----3-----3---|------------------------|
G|-------3-----3-----3-----3-|---2-----2-----|-------1-----1----------|
D|-----4-----4-----4-----4---|-0-------------|-----2-----2------------|
A|---4-----4-----4-----4-----|---------------|---2-----2--------------|
E|-2-------------------------|---------------|-0-----------------------|

intro: Re#*(x4)

A)
  D# *          A# *                          Bm 
Tuve una pena buena y aun los labios de ella vuelan
    G                                 F#m 
y en el contorno de los sueños que me quedan
                                      F#m 
como los pájaros de un cielo en acuarela

A)
 D# *            A# *                      Bm 
Vuelan, y en la ventana el brazo apoya la cabeza
G                              F#m 
en el tejado un gato juega con estrellas
                                F# 
que el alma pinta con sus dedos de princesa

B)
   D                      E              F# 
Y cuando brilla el sol la pena tiene un resplandor
  D                  E                F# 
y es como del color de alguna calle en que llovió
   D                       E              F# 
y cuando brilla el sol la pena tiene un resplandor
  D                  E                 F# 
y es como del color de alguna calle en que llovió

  interludio

E|-3-2-0---------------------------------|
B|-------3-2--0-----------2--------2-----|
G|--------------2-----2---------2--------|
D|-----0------0-----4----4----4---4------|
A|---0-----0-----------------------------|
E|-3-----3------2-2---------2------------| (x2)

A)
Vuela, se encoje de hombros mi camisa entre las perchas
cuando la miro para verme en el camino
quizás aún la lleve puesta

B)
Y cuando brilla el sol la pena tiene un resplandor
y es como del color de alguna calle en que llovió
y cuando brilla el sol la pena tiene un resplandor
y es como del color de alguna calle en que llovió.
Composição de Manuel Garcia
3 exibições
    • ½ Tom
    • Am
    • Bbm
    • Bm
    • Cm
    • C#m
    • Dm
    • Ebm
    • Em
    • Fm
    • F#m
    • Gm
    • G#m
  • Adicionar à lista

    0 comentários

    Ver todos os comentários

    Conseguiu tocar?

    0 Tocaram 0 Ainda não

    Grave um vídeo tocando La pena vuela e nos envie!

    00:00 / 00:00
    Outros vídeos desta música
    Repetir Qualidade Automático
    Outros vídeos desta música
    00:00 / 00:00
    Automático

    Cifra Club Pro

    Aproveite o Cifra Club com benefícios exclusivos e sem anúncios
    Cifra Club Pro
    Aproveite o Cifra Club com benefícios exclusivos e sem anúncios
    OK