Cifra Club

Acuario

Manuel Garcia

Cifra: Principal (violão e guitarra)
tom: G
Intro:

                                                        X2
E|-------------------------------------------------------|
B|-------------------------------------------------------|
G|-------------------------------------------------------|
D|-----------3-------------3-----------------------------|
A|-1---1--5-------------5-----------------3--------------|
E|---1---------5--1--5--------5--3--3--5-----5-----------|

   BbM6                 BbM6/ A    Cm aj7
A) En la calle hoy, debo decidir, si bajo o si subo,
   porque si no estas, puedo imaginar, en mis huesos humo.

A) En un restorán, comiendo wan tang, me escondo del frío,
   es como romper hojas de un lugar, lejos del camino.

 (Guitarra 1)                                              x2
E|----------------------------------------------------------|
B|----------------------------------------------------------|
G|----------------------------------------------------------|
D|----------------------------------------------------------|
A|-0---0-2-3--5-3-------------5-3-0-------------------------|
E|---0------------3-5-3-2--2--------------------------------|


(Guitarra 2)
   Am 
B) Dices que ya te cortaste el pelo
   Cm aj7
   con eso cuantas cosas se alejan
   G  
   con eso cuantas cosas se acercan
   D 
   dices que ya volverá a crecer

B )Dices que ya te cortaste el pelo
   con eso cuantas cosas se acaban
   con eso cuantas cosas se comienzan
   dices que ya volverá a crecer

A) Frío y soledad, de un homre que está, cubierto con diarios.
   Ésta es la ciudad, que marco San Juan, en su calendario.

A) Violencia moral, de peces que están,en el mismo acuario.
   Ver para creer y hacen del fe, fotos de un sudario.

(Guitarra 1)
B) Dices que ya te cortaste el pelo
   con eso cuantas cosas se acaban
   con eso cuantas cosas se comienzan
   dices que ya volverá a crecer

B) Dices que ya te cortaste el pelo
  con eso cuantas cosas se alejan
  con eso cuantas cosas se acercan
  dices que ya volverá a crecer

Intro:(Mismo Punteo de la intro)
A) Otra vez, Otra vez, Otra vez...


Solo:

E|------------------------------------------------------------|
B|------------------------------------------------------------|
G|--7b8-5-----7b8-5-----7b8--5-5~-----------------------------|
D|---------8---------7----------------------------------------|
A|------------------------------------------------------------|
E|------------------------------------------------------------|



BbM6           BbM6/ A        Cm aj7

E|-3-------| E-3-------     E---------
B|-3-------| B-3-------     B---------
G|-3-------| G-3-------     G---------
D|-3-------| D-3-------     D--2------
A|-3--5----| A-3----5--     A--3------
E|-3-----6-| E-3----5--     E--3------
Composição de Manuel Garcia
11 exibições
    • ½ Tom
    • A
    • Bb
    • B
    • C
    • Db
    • D
    • Eb
    • E
    • F
    • F#
    • G
    • Ab
  • Adicionar à lista

    0 comentários

    Ver todos os comentários

    Conseguiu tocar?

    0 Tocaram 0 Ainda não

    Grave um vídeo tocando Acuario e nos envie!

    00:00 / 00:00
    Outros vídeos desta música
    Repetir Qualidade Automático
    Outros vídeos desta música
    00:00 / 00:00
    Automático

    Cifra Club Pro

    Aproveite o Cifra Club com benefícios exclusivos e sem anúncios
    Cifra Club Pro
    Aproveite o Cifra Club com benefícios exclusivos e sem anúncios
    OK