Cifra Club

Aprenda

Por Las Llagas de Jesús

Marcela Gandara

Cifra: Principal (violão e guitarra)
tom: A
                           introdução da guitarra
    F#m        D    E   A   F#m        D        E
E|--------------------------------------------12~-----------------------------------------------------
B|-9/10-9-7---7------------9/10-9-7---7--9/10---------------------------------------------------------
D|----------9-----9---4/6-----------9-----------------------------------------------------------------
A|----------------------------------------------------------------------------------------------------
E|----------------------------------------------------------------------------------------------------


                    A
Por las llagas de Jesús
                   D
mis dolencias El llevo
 Bm                      E
fue la sangre que el vertió
                   A    E
que mis culpas El lavo
                   A
Con la sangre de Jesús
                D
mi conciencia el limpio
Bm                  E
fue la gracia de la cruz
                 A    A7
que mi libertad compro


CORO
A7                      D
Por los siglos de los siglos
  E             A
al cordero alabare
 F#m             Bm
con todos los redimidos
  E                  A   A7
junto al trono yo estaré
                   D
Con millares de millares
  E             A
al cordero alabare
 F#m          Bm
y con ojos redimidos
   E             A     D  E
a Jesucristo yo veré.


                    A
Por las llagas de Jesús
                   D   A
mis dolencias El llevo
Bm                         E
  fue la sangre que El vertió
                 A       E
que mis culpas El lavo
                   A
Con la sangre de Jesús
                      D    A
mi conciencia el limpio
Bm                      E
  fue la gracia de la cruz
                   A    A7
que mi libertad compro


CORO
A7                      D
Por los siglos de los siglos
  E             A
al cordero alabare
 F#m             Bm
con todos los redimidos
  E                  A   A7
junto al trono yo estaré
                   D
Con millares de millares
  E             A
al cordero adorare
 F#m          Bm
y con ojos redimidos
   E             A
a Jesucristo yo veré.

 A   F#   Bm

 E               A    F#m  Bm
a Jesucristo yo veré.
 E               A
a Jesucristo yo veré.

solo final
(// A   F#m    Bm    E //)

   A             F#m            Bm   E      A                               Bm    E    A
E|----12-----12-----12----12---14---12----------12-----12----12---------------------------
B|9-10--9-10---9-10---9-10-----------------9-10---9-10---9-10--9-10---9/10-9/7---5---9/10~
D|----------------------------------------------------------------------------------------
A|----------------------------------------------------------------------------------------
E|----------------------------------------------------------------------------------------
Colaboração e revisão:
  • williamva a.
  • Adilson Raasch
2.328 exibições
    • ½ Tom
    • A
    • Bb
    • B
    • C
    • Db
    • D
    • Eb
    • E
    • F
    • F#
    • G
    • Ab
  • Adicionar à lista

    0 comentários

    Ver todos os comentários
    00:00 / 00:00
    outros vídeos desta música
    repetir qualidade Automático
    Outros vídeos desta música
    00:00 / 00:00
    Automático

    Cifra Club Pro

    Aproveite o Cifra Club com benefícios exclusivos e sem anúncios
    Cifra Club Pro
    Aproveite o Cifra Club com benefícios exclusivos e sem anúncios
    OK