Cifra Club

Quem Me Dera (part. Jerry Smith)

Márcia Fellipe

Cifra: Principal (violão e guitarra)
tom: G#m
[Intro] E  F#  D#m  G#m

E|-11-14-11-14-16-14--11-14-11-14-16-14----19-18-18---|
B|----------------------------------------------------|
G|----------------------------------------------------|
D|----------------------------------------------------|
A|----------------------------------------------------|
E|----------------------------------------------------|

E|-----11-11------------------------------------------|
B|-16---------14-14-16--------------------------------|
G|----------------------------------------------------|
D|----------------------------------------------------|
A|----------------------------------------------------|
E|----------------------------------------------------|

E|-11-14-11-14-16-14--11-14-11-14-16-14----19-18-18---|
B|----------------------------------------------------|
G|----------------------------------------------------|
D|----------------------------------------------------|
A|----------------------------------------------------|
E|----------------------------------------------------|

E|------11-11----------------11-----------------------|
B|-16---------14-14-16----------14-12-11--------------|
G|---------------------------------------13-----------|
D|----------------------------------------------------|
A|----------------------------------------------------|
E|----------------------------------------------------|

[Primeira Parte]

 E                F#
Não tô me reconhecendo
       D#m              G#m
Tô em casa em pleno feriado 
E                            F#                G#m
Até o garçom sentiu a minha falta e já ligou preocupado

[Pré-Refrão]

                E
É que agora só penso em você
 F#                   D#m
Não é que eu esteja apaixonada
G#m            E
Eu tô falando sério
                  F#
Eu não quero ninguém
                G#m
Mas se você quiser, eu quero

[Refrão]

               E
Dormir de conchinha
              F#
Nem pisar em festa
         D#m
Deus me livre
             G#m
Mas quem me dera

              E
Postar foto juntos
              F#
Contatinho já era
         D#m
Deus me livre
             G#m
Mas quem me dera
           E
Eu tô com pressa
              F#
Mas se você vier
                 G#m   D#m
O meu coração espera

            E
Eu tô com pressa
              F#
Mas se você vier
                 G#m
O meu coração espera

( C  D  Bm  Em )
( C  D  Bm  Em )

[Primeira Parte]

 C                D
Não tô me reconhecendo
       Bm              Em
Tô em casa em pleno feriado 
C                            D                 Em
Até o garçom sentiu a minha falta e já ligou preocupado

[Pré-Refrão]

                C
É que agora só penso em você
 D                    Bm
Não é que eu esteja apaixonada
Em             C
Eu tô falando sério
                  D
Eu não quero ninguém
                Em
Mas se você quiser, eu quero

[Refrão]

               C
Dormir de conchinha
              D
Nem pisar em festa
         Bm
Deus me livre
             Em
Mas quem me dera

              C
Postar foto juntos
              D
Contatinho já era
         Bm
Deus me livre
             Em
Mas quem me dera

            C
Eu tô com pressa
              D
Mas se você vier
                 Em  
O meu coração espera

            C
Eu tô com pressa
              D
Mas se você vier
                 Em
O meu coração espera
Composição de Anderson Valente / Romim Mata / Thalison / Walber Cassio / Xuxinha
Colaboração e revisão:
  • André Soares
  • Getúlio Vasconcelos
137.367 exibições
    • ½ Tom
    • Am
    • Bbm
    • Bm
    • Cm
    • C#m
    • Dm
    • Ebm
    • Em
    • Fm
    • F#m
    • Gm
    • G#m
  • Adicionar à lista

    0 comentários

    Ver todos os comentários

    Conseguiu tocar?

    25 Tocaram 22 Ainda não

    Grave um vídeo tocando Quem Me Dera (part. Jerry Smith) e nos envie!

    00:00 / 00:00
    Outros vídeos desta música
    Repetir Qualidade Automático
    Outros vídeos desta música
    00:00 / 00:00
    Automático

    Cifra Club Pro

    Aproveite o Cifra Club com benefícios exclusivos e sem anúncios
    Cifra Club Pro
    Aproveite o Cifra Club com benefícios exclusivos e sem anúncios
    OK