Cifra Club

Te Amo Demais

Marília Mendonça

Cifra: Principal (violão e guitarra)
Selo Cifra Club: esta cifra foi revisada para atender aos critérios oficiais da nossa Equipe de Qualidade.
tom: C
[Intro] C  G  (Frase 1) 
        Dm  F  C9  G  Dm  F

[Tab - Frase 1]

   C   G
E|-0---2------------------------------------|
B|-1---2------------------------------------|
G|-0---0------------------------------------|
D|-2---0------------------------------------|
A|-3---2------------------------------------|
E|-----3---1---0----------------------------|
   ↓   ↓

[Primeira Parte]

[Dedilhado - Primeira Parte]

Parte 1 de 2
   C9              G
E|-------2---------------2------------------|
B|-----2----2----------2----2---------------|
G|---0--------0------0--------0-------------|
D|------------------------------------------|
A|-3----------------------------------------|
E|-----------------3------------------------|

Parte 2 de 2
   Dm              Am
E|-------1---------------0------------------|
B|-----3----3----------1----1---------------|
G|---2--------2------2--------2-------------|
D|-0----------------------------------------|
A|-----------------0------------------------|
E|------------------------------------------|

Parte 1 de 2
   C9              G
E|-------2---------------2------------------|
B|-----2----2----------2----2---------------|
G|---0--------0------0--------0-------------|
D|------------------------------------------|
A|-3----------------------------------------|
E|-----------------3------------------------|

Parte 2 de 2
   Dm              Am
E|-------1---------------0------------------|
B|-----3----3----------1----1---------------|
G|---2--------2------2--------2-------------|
D|-0----------------------------------------|
A|-----------------0------------------------|
E|------------------------------------------|

C9        G  
Eu sou assim
       Dm               Am
Nunca soube recitar poesia
     C9               G  
Não sei palavras de amor
             Dm
Não sou sedutor
                         Am
Não sei fingir, nem poderia
GDm
Eu não tenho ouro nem prata
        F                C9
Mas, o meu maior tesouro eu te dei
     G                    Dm
Só quero seu amor e mais nada
         F            
Você precisa entender
      F       C/E  Dm C
É que eu não sei  di_zer

[Refrão]

[Tab - Frase 2]

  (frase 2)  G   
E|-----------2------------------------------|
B|-----------2------------------------------|
G|-----------0------------------------------|
D|-----0-2---0------------------------------|
A|---3-------2------------------------------|
E|-3---------3----1----0--------------------|
             ↓

      (Frase 2)  G      Dm
Só sei que eu te amo demais
              F    
Nas noites sozinho
                      C9
É o teu nome que eu chamo
           G      Dm
Baby eu te amo demais
       F                   C9
Eu só sei dizer te amo, te amo

( G  Dm  F  C9 ) 
( G  Dm  F  C/E  Dm )

[Segunda Parte]

   C9                          G
Palavras valem menos que um olhar
       Dm                     Am
O coração é quem vai te explicar
      C9                  G
Da cabeça aos pés eu vou te beijar
         Dm                Am
Como um sábio na arte de amar

            G                         Dm
Não sei mentir pra conquistar uma mulher
       F                       C9
Daria tudo nesse mundo só pra ter você
      G                       Dm
O destino seja o que Deus quiser
         F            
Você precisa entender
      F       C/E  Dm C
É que eu não sei  di_zer

[Refrão Final]

      (Frase 2)  G      Dm
Só sei que eu te amo demais
              F    
Nas noites sozinho
                      C9
É o teu nome que eu chamo
           G      Dm
Baby eu te amo demais
       F                   C9
Eu só sei dizer te amo, te amo

                 G      Dm
Só sei que eu te amo demais
              F    
Nas noites sozinho
                      C9
É o teu nome que eu chamo
           G      Dm
Baby eu te amo demais
       F         C/E     Dm  C9 
Eu só sei dizer te amo, te   amo

(Frase 2) G           Dm
            Te amo demais
F            C9
  Como eu te amo
G            Dm   F  C/E     Dm C9
   Te amo demais,   te amo, te  amo

      (Frase 2)  G      Dm
Só sei que eu te amo demais
              F    
Nas noites sozinho
                      C9
É o teu nome que eu chamo
           G      Dm
Baby eu te amo demais
       F         C/E     Dm  C9
Eu só sei dizer te amo, te   amo

( (Frase 2) G  Dm  F  C9  G  Dm )
F    C
  Te amo
Outros vídeos desta música
548.530 exibições
  • Simplificar cifra
    • ½ Tom
    • A
    • Bb
    • B
    • C
    • Db
    • D
    • Eb
    • E
    • F
    • F#
    • G
    • Ab
  • Adicionar à lista

Afinação da cifra

Afinador online

    0 comentários

    Ver todos os comentários

    Entre para o Cifra Club PRO

    Tenha acesso a benefícios exclusivos no App e no Site

    • Chega de anúncios

    • Mais recursos no app do Afinador

    • Atendimento Prioritário

    • Aumente seu limite de lista

    • Ajude a produzir mais conteúdo

    Capítulos
    • Apresentação
    • Tocando a Música
    • Acordes da Intro
    • Tocando a Intro
    • Ensinando o Ritmo da Música
    • Ensinando a Frase 1
    • Acordes da Primeira Parte
    • Tocando a Primeira Parte
    • Ensinando o Dedilhado da Primeira Parte
    • Ensinando o Ritmo da Primeira Parte
    • Tocando o Refrão
    • Ensinando a Frase 2
    • Ensinando o Ritmo da Segunda Parte
    • Dicas da Segunda Parte
    • Tocando a Segunda Parte
    • Dicas do Refrão Final
    • Tocando o Refrão Final
    • Ensinando o Refrão Final
    • Encerramento

    Cifra Club Pro

    Aproveite o Cifra Club com benefícios exclusivos e sem anúncios
    Cifra Club Pro
    Aproveite o Cifra Club com benefícios exclusivos e sem anúncios
    OK