Cifra Club

Girls Like You (remix) (feat. Cardi B)

Maroon 5

Cifra: Principal (violão e guitarra)
Tom: C
[Intro]

E|----------------------------------------------------|
B|----------------------------------------------------|
G|----------------------------------------------------|
D|-------x-x-x-5-5-5-5-x-x--3-x-x-2-2-----------------|
A|----3-----------------------------------------------|
E|----------------------------------------------------|

E|----------------------------------------------------|
B|----------------------------------------------------|
G|----------------------------------------------------|
D|-------x-x-x--5-5-5-5-x-x-7--x-x-2-----------------|
A|----3-----------------------------------------------|
E|----------------------------------------------------|

E|----------------------------------------------------|
B|----------------------------------------------------|
G|----------------------------------------------------|
D|--------x-x-x--5-5-5-5-x-x-3-x-x-2------------------|
A|----3-----------------------------------------------|
E|----------------------------------------------------|

E|----------------------------------------------------|
B|----------------------------------------------------|
G|----------------------------------------------------|
D|-------x-x-2-2------------x-x-2-2-------------------|
A|----5----------x-5-x-5------------5-3---------------|
E|----------------------------------------------------|

[Primeira Parte]

       C                G               Am  F
Spent 24 hours, I need more hours with you
               C              G      Am  F
You spent the weekend getting even, ooh
              C                   G                  Am  F
We spent the late nights making things right between us

[Pré-Refrão]

             C
But now it's all good, babe
           G
Roll that back wood, babe
          Am      F
And play me close

[Refrão]

        C                              G
'Cause girls like you run 'round with guys like me
                   Am
'Til sun down when I come through
          F
I need a girl like you, yeah yeah
 C                            G
Girls like you love fun, and yeah, me too
                 Am
What I want when I come through
          F
I need a girl like you, yeah yeah

C             G               Am
  Yeah yeah yeah, yeah yeah yeah
         F                     C
I need a girl like you, yeah yeah
            G               Am
Yeah yeah yeah, yeah yeah yeah
          F
I need a girl like you

[Segunda Parte]

         C                 G              Am  F
I spent last night on the last flight to you
              C                G       Am  F
Took a whole day up tryna get way up, ooh
              C                    G                  Am  F
We spent the daylight tryna make things right between us

[Pré-Refrão]

             C
But now it's all good, babe
           G
Roll that back wood, babe
          Am      F
And play me close

[Refrão]

        C                              G
'Cause girls like you run 'round with guys like me
                   Am
'Til sun down when I come through
          F
I need a girl like you, yeah yeah
 C                            G
Girls like you love fun, and yeah, me too
                 Am
What I want when I come through
          F
I need a girl like you, yeah yeah

C             G               Am
  Yeah yeah yeah, yeah yeah yeah
         F                     C
I need a girl like you, yeah yeah
            G               Am
Yeah yeah yeah, yeah yeah yeah
          F
I need a girl like you

( C  G  Am  F )
( C  G  Am  F )

[Ponte]

C
  Maybe it's 6:45
G
  Maybe I'm barely alive
Am                                    F
  Maybe you've taken my shit for the last time
C
  Maybe I know that I'm drunk
G
  Maybe I know you're the one
Am                                      F
  Maybe you're thinking it's better if you drive

[Refrão]

        C                              G
'Cause girls like you run 'round with guys like me
                   Am
'Til sun down when I come through
          F
I need a girl like you, yeah

[Segunda parte]

 C
Not too long ago, I was dancin' for dollars
 G
Knew it was really real if I let you met my mama
 Am
You don't want a girl like me I'm too crazy
 F
But every other girl you meet is fugazy
C
I'm sure them other girls were nice enough
  G
But you need someone to spice it up
  Am
So who you gonna call? Cardi, Cardi
  F
Come and rev it up like Harley, Harley
  C
Why is the best fruit always forbidden?
  G
I'm coming to you now doin' 20 over the limit
  Am
The red light, red light stop, stop (skrrt)
  F
I don't play when it comes to my heart (let's get it though)
  C
I don't really want a white horse and a carriage
    G
I'm thinking more white Porsches and karats
  Am
I need you right here cause every time you fall
  F
I play with this kitty like you play with your guitar

        C                               G
'Cause girls like you run 'round with guys like me
                   Am
'Til sun down when I come through
          F
I need a girl like you, yeah
 C                            G
Girls like you love fun, and yeah, me too
                 Am
What I want when I come through
          F
I need a girl like you, yeah yeah

C             G               Am
  Yeah yeah yeah, yeah yeah yeah
         F                     C
I need a girl like you, yeah yeah
            G               Am
Yeah yeah yeah, yeah yeah yeah
          F
I need a girl like you

[Final] C  G  Am  F  C

E|----------------------------------------------------|
B|----------------------------------------------------|
G|----------------------------------------------------|
D|-------x-x-x-5-5-5-5-x-x--3-x-x-2-2-----------------|
A|----3-----------------------------------------------|
E|----------------------------------------------------|

E|----------------------------------------------------|
B|----------------------------------------------------|
G|----------------------------------------------------|
D|-------x-x-x--5-5-5-5-x-x-7--x-x-2-----------------|
A|----3-----------------------------------------------|
E|----------------------------------------------------|

E|----------------------------------------------------|
B|----------------------------------------------------|
G|----------------------------------------------------|
D|--------x-x-x--5-5-5-5-x-x-3-x-x-2------------------|
A|----3-----------------------------------------------|
E|----------------------------------------------------|

E|----------------------------------------------------|
B|----------------------------------------------------|
G|----------------------------------------------------|
D|-------x-x-2-2------------x-x-2-2-------------------|
A|----5----------x-5-x-5------------5-3---------------|
E|----------------------------------------------------|
exibições 1.512
Acordes para:

    0 comentários

    mostrar mais comentários

    Conseguiu tocar?

    0 tocaram 0 ainda não

    Grave um vídeo tocando Girls Like You (remix) (feat. Cardi B) e mande pra gente!

    00:00 / 00:00
    outros vídeos desta música
    repetir qualidade Automático
    Outros vídeos desta música
    00:00 / 00:00
    Automático
    OK