Cifra Club

De Igual Pra Igual

Matogrosso & Mathias

Cifra: Principal
exibições 395.848
Tom: F
[Intro]  F  F7M  F6  F7M

E|--5-----5---5----5-------------|
B|-6-6-5----3--3-5---------------|
G|-------------------------------|
D|-------------------------------|
A|-------------------------------|
E|-------------------------------|

[Solo]  Bb  F  Gm  C  F  Gm  C7

E|-------------------|-----------------------|
B|-6---------6-6/8-6-|-5--------5-5h6-5------|
G|---7-----7---------|---5-----5-------------|
D|----8-5-8----------|----7-5-7--------------|
A|-------------------|-----------------------|
E|-------------------|-----------------------|

E|-------------------|-----------------10-8--|
B|-3---------3-3h5-3-|----10-8-6-----8-------|
G|---3-----3---------|-----------7-9---10-9--|
D|----5-3-5----------|-10-10-8-7-------------|
A|-------------------|-----------------------|
E|-------------------|-----------------------|


F  F7M  F6  F7M
  Você mentiu, quando jurava para mim fidelidade
 Fui apenas um escravo da maldade
                                G  C7
 Você quis, você lutou e conseguiu
    Gm             C                       Gm
 Você feriu, sentimentos que a ti eu dediquei
          C                    Gm
 Quantas vezes o seu pranto enxuguei
         C                          F   Gm  C7
 Por pensar que era por mim que chorava
F  F7M  F6  F7M
  Você fingiu, você brincou com a minha sensibilidade
 É o fim do nosso caso da verdade
 F7                 Bb
   Só nos restam recordações
                                                 F
 Não toque em mim, hoje descobri que você não é nada
                                     C
 Não podemos seguir juntos nesta estrada
   C7                            F   F7
 É o fim do amor sincero que senti
     Bb                                           F
 Mas aprendi, fazer amor pra te ferir sem sentir nada
                                Gm
 Enquanto eu amava você me enganava
                 C                          F     C
 De igual pra igual quem sabe a gente pode ser feliz
             F         C                F
 Ser feliz, ser feliz,ser feliz, ser feliz
Acordes para:

    0 comentários

      mostrar mais comentários

      Conseguiu tocar?

      7tocaram2ainda não

      Grave um vídeo tocando De Igual Pra Igual e mande pra gente!

      00:00 / 00:00
      outros vídeos desta música
      repetirqualidadeautomática
      Outro vídeos desta música
        00:00 / 00:00
        automática
        OK