Cifra Club

Aprenda

Gold guns girls

Metric

Cifra: Principal (violão e guitarra)
tom: C
(intro)
    F
E|------------1------------------------|
B|------1--------1---------------------|
G|--------2---------2------------------|
D|----------3--------------------------|
A|----3--------------------------------|
E|--1----------------------------------|
    G
E|------------0------------------------|
B|------3--------3---------------------|
G|--------0---------0------------------|
D|----------0--------------------------|
A|----2--------------------------------|
E|--3----------------------------------|
    Am
E|------------0------------------------|
B|------1--------1------1--------------|
G|--------2---------2-----2---0--------|
D|----------2---------------2---2------|
A|----0-----------------0--------------|
E|--0----------------------------------|
    F
E|------------1------------------------|
B|------1--------1---------------------|
G|--------2---------2------------------|
D|----------3--------------------------|
A|----3--------------------------------|
E|--1----------------------------------|
    G
E|------------0------------------------|
B|------3--------3---------------------|
G|--------0---------0------------------|
D|----------0--------------------------|
A|----2--------------------------------|
E|--3----------------------------------|
    Am
E|---------0---------------------------|
B|------1-----1------1-----------------|
G|--------2------2-----2---0-----------|
D|----------2------------2---2---------|
A|----0--------------0----------0------|
E|--0-----------------------------0----|

F            G
All the gold
            Am
And the guns
            Am7
In the world
Couldn't get you off

F           G
All the gold
            Am
And the guns
            Am7
And the girls
Couldn't get you off

F           G
All the boys
              Am
All the choices
            Am7
In the world

F
I remember when we were gambling to win
G
Everybody else said better luck next time
F
I don't wanna bend like the bad girls bend
G
I just wanna be your friend
                          Am
Is it ever gonna be enough

Am                         F
Is it ever gonna be enough?
                          G
Is it ever gonna be enough?
                          Am
Is it ever gonna be enough?

F           G
All the lace
            Am
And the skin
            Am7
In the shop
Couldn't get you off

F          G
All the toys
            Am
And the tools
          Am7
In the box
Couldn't get you off

F           G
All the noise
             Am
All the voices
          Am7
Never stop

F
I remember when we were gambling to win
G
Everybody else said better luck next time
F
I don't wanna bend like the bad girls bend
G
I just wanna be your friend
F
While you're giving me a hard time
F
I remember when we were gambling to win
G                                  Am
Everybody else said ah-ah-ah-ah-ah

Am                        F
Is it ever gonna be enough?
                          G
Is it ever gonna be enough?
                          Am
Is it ever gonna be enough?
Composição de Metric
Colaboração e revisão:
  • João Emídio
1.634 exibições
    • ½ Tom
    • A
    • Bb
    • B
    • C
    • Db
    • D
    • Eb
    • E
    • F
    • F#
    • G
    • Ab
  • Adicionar à lista

    0 comentários

    Ver todos os comentários

    Conseguiu tocar?

    2 Tocaram 0 Ainda não

    Grave um vídeo tocando Gold guns girls e nos envie!

    00:00 / 00:00
    Outros vídeos desta música
    Repetir Qualidade Automático
    Outros vídeos desta música
    00:00 / 00:00
    Automático

    Cifra Club Pro

    Aproveite o Cifra Club com benefícios exclusivos e sem anúncios
    Cifra Club Pro
    Aproveite o Cifra Club com benefícios exclusivos e sem anúncios
    OK