Cifra Club

Kids

MGMT

Cifra: Acustico (violão e guitarra)
tom: A
(intro)

e|---------------------------------------------------------------------------|
b|---------------------------------------------------------------------------|
g|---------------------------------------------------------------------------|
d|---------------------------------------------------------------------------|
a|-0-2-4-7-9-11-9-7-4~---2---------------------------------------------------|
e|---------------------------------------------------------------------------|

e|---------------------------------------------------------------------------|
b|---------------------------------------------------------------------------|
g|---------------------------------------------------------------------------|
d|---------------------------------------------------------------------------|
a|-00-22-44-77-99-11-9-777-4444-4444-2222-2222-------------------------------|
e|---------------------------------------------------------------------------|

e|---------------------------------------------------------------------------|
b|---------------------------------------------------------------------------|
g|---------------------------------------------------------------------------|
d|-------------22--44--66--4--0----------------------------------------------|
a|-00--22--44--00--55--55--5--7--44444444--00000000--------------------------|
e|-22--22--22--------------------55555555--77777777--------------------------|

e|----------------------------------------------------------------------------|
b|----------------------------------------------------------------------------|
g|----------------------------------------------------------------------------|
d|-------------22--44--66--4--0-----------------------------------------------|
a|-00--22--44--00--55--55--5--7--44444444--4444444----------------------------|
e|-22--22--22--------------------55555555--4444444----------------------------|

e|---------------------------------------------------------------------------|
b|---------------------------------------------------------------------------|
g|---------------------------------------------------------------------------|
d|-------------22--44--66--4--0----------------------------------------------|
a|-00--22--44--00--55--55--5--7--44444444--00000000--------------------------|
e|-22--22--22--------------------55555555--77777777--------------------------|

(erse chords, repeat them over and over and find the rhytm yourself)

e|---------------------------------------------------------------------------|
b|---------------------------------------------------------------------------|
g|------7--------------------------------------------------------------------|
d|-4----7----7----7----------------------------------------------------------|
a|-4----5----4----4----------------------------------------------------------|
e|-2---------5----4----------------------------------------------------------|

(chorus - nearly the same as in the intro)

e|---------------------------------------------------------------------------|
b|---------------------------------------------------------------------------|
g|---------------------------------------------------------------------------|
d|-------------22--44--66--4--0----------------------------------------------|
a|-00--22--44--00--55--55--5--7--44444444--00000000--------------------------|
e|-22--22--22--------------------55555555--77777777--------------------------|

e|---------------------------------------------------------------------------|
b|---------------------------------------------------------------------------|
g|---------------------------------------------------------------------------|
d|-------------22--44--66--4--0----------------------------------------------|
a|-00--22--44--00--55--55--5--7--44444444--4444444---------------------------|
e|-22--22--22--------------------55555555--4444444---------------------------|
00:00 / 00:00
Outros vídeos desta música
Repetir
Outros vídeos desta música
Composição de Andrew VanWyngarden / Ben Goldwasser
Colaboração e revisão:
  • Élison Duarte
10.040 exibições
    • ½ Tom
    • A
    • Bb
    • B
    • C
    • Db
    • D
    • Eb
    • E
    • F
    • F#
    • G
    • Ab
  • Adicionar à lista

    0 comentários

    Ver todos os comentários

    Entre para oCifra Club PRO

    Tenha acesso a benefícios exclusivos no App e no Site

    • Chega de anúncios

    • Prioridade de compra em lançamentos

    • Mais recursos no app do Afinador

    • Atendimento Prioritário

    • Descontos nos produtos Cifra Club

    • Ajude a produzir mais conteúdo

    00:00 / 00:00

    Cifra Club Pro

    Aproveite o Cifra Club com benefícios exclusivos e sem anúncios
    Cifra Club Pro
    Aproveite o Cifra Club com benefícios exclusivos e sem anúncios
    OK