Cifra Club

Aprenda

California Dreaming

Michael Chapdelaine

Cifra: Principal (violão e guitarra)
tom: F# (forma dos acordes no tom de D) Capotraste na 4ª casa
(capotraste na quarta casa)

E |----------------------------0-------------------7--5--3--5-----------------|
B |------0---3-1-0---------------------------------0--------5-----------------|
G |----2---2--------------9-10-9----7----5----7-5-----5--0--4--2-4-2-0--------|
D |--2--------------------9-10-9-10---9--7---------7--7-----2-----------------|
A |-------------------(12)------------------7---------------2-----------------|
E |---------------(12)--------------------------------------------------------|

E |-------------------------------------0-0-0-0---0----0-0--------------------|
B |--1--1---0-0-------------------------0-0-0-0---0----0-0--1----1---1--1-----|
G |--2--2---0-0---2----2-4-2/0----------2-2-2-2---1----1-1--------------------|
D |--2--2---0-0---2----3---------1/2--2---------------------------------------|
A |--0------------3---3-------------------------------------------------------|
E |-------0-3---x---1------1---x------0-----0---x----0--------1----x----------|

E |--0------------------------------------------------------------------------|
B |--1--1--0--0----1--------1---1--1----0/1--0--3-3-3-3----0---0-0------------|
G |--0--0--1--1----2------2---2-----------------4-4-4-4----1---1-1------------|
D |-----2--0--0----2----2------------------------------------------2----------|
A |--3-----2----------0------------------------------------------------2-3-2--|
E |--------------x--------------1----x-------0------0----x---0-------0--------|

E |-----------------------------------------0-0-0-0---0----0-0-0--------------|
B |--1---1-1--0-0---------------------------0-0-0-0---0----0-0/5--3-1-0-------|
G |----2-2-2--0-0-2------2-4-2/0-0-0--------2-2-2-2---1----1-1----------------|
D |------2-2--0-0-3------3-----------1/2--2-----------------------------------|
A |--0------------3----3------------------------------------------------------|
E |-----------3------1-------1------------0-----0---x----0--------------------|

E |-----------------------------------------0-------0-------------------------|
B |--1/0---1-1--0-0-1--1-1---1--3--1--3--1--0-------0-------------------------|
G |------2-2-2--0-0-2--2-2---2--4--2--4--2--1-------1---2-4-2/0-2-------------|
D |--------2-2--0-0-3--3-3---3--5--3--5--3--2-------2-------------------------|
A |--0--------------------------------------2-------2-------------------------|
E |-------------3------1--------3--1--3--1--0-------0-------------------------|

E |---------------------------------------0-0-0-0---0---0---0-----------------|
B |---------------------------------------0-0-0-0---0-----------3--1----------|
G |------2-------0-----0--2--0---1/2--0---2-2-2-2---1----------------2-0------|
D |----2-------0-------3----------------2-------------------------------------|
A |--0---------------3--------------------------------------------------------|
E |--------0-3-----1-----------3--------0-----0---x---0---------1-------------|

E |--0-0--------0---------------------------------------0-0-0-0---------------|
B |--1-1--3-3---1------0/1---1--1-0/1--0--3-3-3-3---0-----------3--1----------|
G |--2-2--4-4---2----2-----2--------------4-4-4-4---1----------------2--------|
D |-------5-5-----------------------------------------------------------------|
A |--0-------------0----------------------------------------------------------|
E |-------3---x--------------1---------0------0---x---0-------1---------------|

E |-----------------------------------------0-0-0-0---0---0-0-0---3-----------|
B |--3/1---1-1--0-0-------------------------0-0-0-0---0---0-0/5-----5---------|
G |------2-2-2--0-0--2----0-2-0---1/2-0-----2-2-2-2---1---1-1---------5-------|
D |--------2-2--0-0--3-------------------2------------------------------------|
A |--0---------------3--------------------------------------------------------|
E |-------------3-------1-------3--------0------0---x---0-------0-------------|

E |------------------------------------------0-------0------------------------|
B |--4/3--1------0-0--1--1-1--1--3--1--3--1--0-------0------------------------|
G |---------2-2--0-0--2--2-2--2--4--2--4--2--1-------1------------------------|
D |---------2-2--0-0--3--3-3--3--5--3--5--3--2-------2------------------------|
A |--0---------------------------------------2-------2------------------------|
E |--------------3-------1-------3--1--3--1--0-------0------------------------|

E |-----------------------------------------------------------------------------------|
B |--1-----------------------0-1-3-------1/0--1-----------------------0-1-3-------1/0-|
G |------2---2---2---2-------------2--------------2---2---2---2-------0-0-2-2---------|
D |----2-----------2---2---2---------2----------2-----------2---2---2-0-------0-------|
A |--0---------0---------0---0---0------------0---------0---------0-------------------|
E |--------x---------------------------x------------x---------------------1-----x-----|

E |-----------------------------1---1--1--1-0--------------0--0---4---7---12--|
B |--0--------------------------1---1--1--1-0--0---------0----0---------------|
G |------1----------1---2-----2-----2--2--2-2----2-----2------1---------------|
D |----0-----2----2-----2---2----------------------2----------2---------------|
A |--3-------2--2-----2---0-----------------------------------2---------------|
E |--------0----------------------1-------1/0--------0--------0-----0---0---0-|

E |--10-10-10-8-10---10-8--10-10-10-8-10-----8-10--10-10-10-10-8-10-10-10-10-15-12----|
B |----------------------------------------10-------------------------------------13--|
G |----------------0---------------------0--------------------------------------------|
D |-----------------------------------------------------------------------------------|
A |--0---------------------8----------------------------------------------------------|
E |------------------------------------------------0-----0----------0-----0-----------|

E |--10--10-10-8-10-10---8-10-10-------8-10--10-10-10-10-7-7--4-4--1-1-0--------------|
B |------------------------------0--10-------------------0-0--6-6--3-3-0-1-0----------|
G |---------0--------------------0-------------------------------------------2-4-2-0--|
D |-----------------------------------------------------------------------------------|
A |--0-----------------8--------------------------------------------------------------|
E |------------------------------------------0-----------0---------0---------0--------|

E |---------------------------------------------------------------------------|
B |--1/0---1-1--0-0-1--1-1-1-3--1--0-------------0-0--1-1-1--3--1--0----------|
G |------2-2-2--0-0-2--2-2-2-4--2--0----0--2-2-2-0-0--2-2-2--4--2--0--0-------|
D |--------2-2--0-0-3--3-3-3-5--3--0----0--2-2-2-0-0--3-3-3--5--3--0--0-------|
A |--0----------------------------------2--0--------------------------2-------|
E |-------------3------1-----3--1--3----3--------3------1----3--1--3--3-------|

E |--------------------------------------0------0-----5-----------------------|
B |----------0-0--3-3-3--1--3--1--3--1---0------0-----5-----------------------|
G |--2--2-2--0-0--2-2-2--2--4--2--4--2---1------1-----5-----------------------|
D |--2--2-2--0-0--3-3-3--3--5--3--5--3---2------2-----7-----------------------|
A |--0-----------------------------------2------2-----7-----------------------|
E |----------3------1-------3--1--3--1---0------0-----5-----------------------|
Compositor não encontrado.
Colaboração e revisão:
  • Julio Rezende
2.959 exibições
    • ½ Tom
    • A
    • Bb
    • B
    • C
    • Db
    • D
    • Eb
    • E
    • F
    • F#
    • G
    • Ab
  • Adicionar à lista

    0 comentários

    Ver todos os comentários

    Conseguiu tocar?

    1 Tocaram 0 Ainda não

    Grave um vídeo tocando California Dreaming e nos envie!

    00:00 / 00:00
    Outros vídeos desta música
    Repetir Qualidade Automático
    Outros vídeos desta música
    00:00 / 00:00
    Automático

    Cifra Club Pro

    Aproveite o Cifra Club com benefícios exclusivos e sem anúncios
    Cifra Club Pro
    Aproveite o Cifra Club com benefícios exclusivos e sem anúncios
    OK