Cifra Club

Merry Go Round

Mötley Crüe

Tab de baixo: Principal
Album:Too Fast For Love
Bassist:Nikki Sixx
Tabber:Dev Fuld

I recieved a request for this song. This is an awesome song off 
of the Crue's first album, Too Fast For Love.

Key:
* = let it ring

*Guitar Intro*

Intro
G:--|
D:--|
A:--|
D:5*|

Pre-Chorus
G:-------------------------------|
D:-------------------------------|
A:-------------------------------|
D:1-1-1-1-1-1-1-1-3-3-3-3-3-3-3-3|

Chorus part 1
G:-----------------------------------|-----------------------------|
D:-----------------------------------|-----------------------------|
A:-----------------------------------|-----------------------------|
D:5--5-5-5-4--4-4-4-3--3-3-3-2--2-2-2|5--5-5-5-4--4-4-4-3--3-3-3-2*|

Chorus part 2
G:--------|
D:--------|
A:--------|
D:1*--0*--|

Verse
G:--------------------|-----------|
D:--------------------|-----------|
A:3*----1*----3*--3-3*|1*----1*---|
D:---5*----3*---------|---5*----5*|

Pre-Chorus

Chorus part 1

Chorus part 2

Solo
G:-------------------------------|-------------------------------|
D:-------------------------------|-------------------------------|
A:-------------------------------|-------------------------------|
D:5-5-5-5-4-4-4-4-3-3-3-3-2-2-2-2|5-5-5-5-4-4-4-4-3-3-3-3-2-2-2-2|

G:-------------------------------|-------------------------------|
D:--5---5---4---4---3---3---2---2|-------------------------------|
A:-------------------------------|-------------------------------|
D:5---5---4---4---3---3---2---2--|5-5-5-5-4-4-4-4-3-3-3-3-2-2-2-2|

Chorus part 1

Chorus part 2

End
G:--------|
D:--------|
A:3*------|
D:----5*--|

That's it. Excellent tune. Fairly easy too. I already put it 
in order, so have fun. Play it with attitude, cause it's a Crue 
song. Any questions or comments, e-mail me at *
00:00 / 00:00
Outros vídeos desta música
Repetir
Outros vídeos desta música
Compositor não encontrado.
251 exibições

0 comentários

Ver todos os comentários

Conseguiu tocar?

0 Tocaram 0 Ainda não

Grave um vídeo tocando Merry Go Round e nos envie!

00:00 / 00:00

Cifra Club Pro

Aproveite o Cifra Club com benefícios exclusivos e sem anúncios
Cifra Club Pro
Aproveite o Cifra Club com benefícios exclusivos e sem anúncios
OK