Cifra Club

Ain´t Seen Love Like That

Mr. Big

Cifra: Principal (violão e guitarra)
Selo Cifra Club: esta cifra foi revisada para atender aos critérios oficiais da nossa Equipe de Qualidade.
tom: C
(intro)
E |-7-----8-----10-----8-----7-------|-7-----8-----10-----8-----7-----|
B |---8-----8------8-----8-----8---8-|---8-----8------8-----8-----8---|
G |-----7-----7------7-----7-----7---|-----7-----7------7-----7-----7-|
D |----------------------------------|--------------------------------|
A |----------------------------------|--------------------------------|
E |----------------------------------|--------------------------------|

E |-7-----8-----10-----8-----7-------||
B |---0-----0------0-----0-----0---0-||
G |-----7-----9/-----11\---9\----7---||
D |----------------------------------||
A |----------------------------------||
E |----------------------------------||

   C        G/B          Am         G
 I´ve been miles from nowhere
   C        G/B         Am        G
 Crossed and doubled back
   C       Em       F            Dm
 Time is a healer and I´ve done my time
         D#         Dm        C
 Cause I ain´t seen love like that

E |-----3---------------|
B |-1/5---5^3-1---1-----|
G |-------------2-------|
D |---------------------|
A |---------------------|
E |---------------------|

  C         G            Am       G
 I´ve seen light of freedom
  C           G          Am       G
 Dim and fade to black
  C       Em          F        Dm
 So many faces , but no one compares
        D#        Dm       C
 No, I ain´t seen love like that

E |-1-0-------------------------|
B |-----3-1---------------------|
G |---------2-0-----------------|
D |-------------3-2-0---0-2-3-5-|
A |-------------------3---------|
E |-----------------------------|

             F                  C     Em
 And I got people telling me to let her go
     F       Em             D#4 D
 Don´t let it turn you around
    F        C           Em        A#
 coming and you´ll never know

 The one that you lost may be found

    C     G/B       Am        G
 I believe in justice
    C      G/B      Am        G
 I wonder where she´s at
    C             Em          F        Dm
 It feels like a lifetime  and  it just ain´t fair
    D#       Dm       C
 No I ain´t seen love like that

E |-1-0-------------------------|
B |-----3-1---------------------|
G |---------2-0-----------------|
D |-------------3-2-0---0-2-3-5-|
A |-------------------3---------|
E |-----------------------------|

             F                  C     Em
And I got people telling me to let her go
        F       Em             D#4 D
That girl is bringin´ you down
  F            C          Em
comin´ and you´ll never know
        A#
The one that you lost may be found

(solo)
E |-8-----8-----7-----7-----7-|-5-----------5----3---3---|
B |---8-----8-----8-----8-----|---5-------5------3---3---|
G |-----9-----9-----7-----7---|-----5---5--------4---4---|
D |---------------------------|-------7----------5---5---|
A |---------------------------|------------------5---5---|
E |---------------------------|------------------3---3---|

E |-8-----8-----10-----10-----10--|--8-------------------3---3----|
B |---8-----8------8------8-------|----8-----------------3---3----|
G |-----9-----9------9------9-----|------9----------9----4---4----|
D |-------------------------------|--------10----10------5---5----|
A |-------------------------------|-----------10---------5---5----|
E |-------------------------------|----------------------3---3----|

E |-8-----8-----7-----7-----7-|--8-------8-------5-----5-----5--------|
B |---8-----8-----8-----8-----|----10------10------6-----6-----6---6--|
G |-----9-----9-----9-----9---|-------10------10-----7-----7-----7----|
D |---------------------------|---------------------------------------|
A |---------------------------|---------------------------------------|
E |---------------------------|---------------------------------------|

E |-8-----8-8--8-------8-------8\--||
B |---8----------6-------6-----8\--||
G |-----8----------7-------7---9\--||
D |------------------7--------10\--||
A |--------------------------------||
E |--------------------------------||

E |-1-0-------------------------|
B |-----3-1---------------------|
G |---------2-0-----------------|
D |-------------3-2-0---0-2-3-5-|
A |-------------------3---------|
E |-----------------------------|

                F                  C     Em
 You know that people telling me to let her go
     F       Em             D#4 D
 Don´t let it turn you around
    F        C           Em        A#
 coming and you´ll never know

 The one that you lost may be found

        C        G/B          Am         G
 I´ve been miles from nowhere
   C        G/B         Am        G
 Crossed and doubled back
   C       Em       F            Dm
 Time is a healer and I´ve done my time
         D#         Dm        C
 Cause I ain´t seen love like that

                D#         Dm       C
 So many faces (ain´t seen love like that)
                     D#         Dm       C
 But no one compares (ain´t seen love like that)
     D#         Dm       C
   (ain´t seen love like that) ain´t seen love
      D#         Dm       C
   (ain´t seen love like that) No I ain´t

D#         A#        G#    G7
Outros vídeos desta música
    8.149 exibições
      • ½ Tom
      • A
      • Bb
      • B
      • C
      • Db
      • D
      • Eb
      • E
      • F
      • F#
      • G
      • Ab
    • Adicionar à lista

    Afinação da cifra

    Afinador online

      0 comentários

      Ver todos os comentários

      Entre para o Cifra Club PRO

      Tenha acesso a benefícios exclusivos no App e no Site

      • Chega de anúncios

      • Badges exclusivas

      • Mais recursos no app do Afinador

      • Atendimento Prioritário

      • Aumente seu limite de lista

      • Ajude a produzir mais conteúdo

      Cifra Club Pro

      Aproveite o Cifra Club com benefícios exclusivos e sem anúncios
      Cifra Club Pro
      Aproveite o Cifra Club com benefícios exclusivos e sem anúncios
      OK