Cifra Club

Just Take My Heart

Mr. Big

Cifra: Principal (violão e guitarra)
Selo Cifra Club: esta cifra foi revisada para atender aos critérios oficiais da nossa Equipe de Qualidade.
tom: C
[Primeira Parte]

C             Bb                     F              Bb
It's late at night and neither one of us is sleeping
Am7           G   Gsus4 F G7   C Dm   C
I can't imagine living my life after you're gone
C             Bb       F                       Bb
Wondering why so many questions have no answers
Am                G  Gsus4  F   G7  F C        Csus4
I keep on searching for the reason why we went wrong
               Am7
Where is our yesterday
Dm7                 Am7        Gsus4 G
You and I could use it right now
    Ab              Bb5
But if this is goodbye

[Refrão]

C            F                G
Just take my heart when you go
C                F           Am  G
I don't have the need for it anymore
Am           Dm         Bb                   Am
I'll always love you, but you're too hard to hold
F            G              C
Just take my heart when you go

( C  Bb  F )
( C  Bb  F )

[Segunda Parte]

C             Bb                     F       Bb
Here we are about to take the final step now
Am7           G   Gsus4   F G7   C Dm                   C
I just can't fool myself, I know there's no turning back
C             Bb          F                  Bb
Face to face it's been an endless conversation
Am           G      Gsus4  F      G7        F      C    Csus4
But when the love is gone you're left with nothing but talk
               Am7
I'd give my everything
Dm7                 Am7        Gsus4 G
If only I could turn you around
   Ab           Bb
But if this is goodbye

[Refrão]

C            F              G
Just take my heart when you go
C                F           Am  G
I don't have the need for it anymore
Am           Dm         Bb                   Am
I'll always love you, but you're too hard to hold
F            G              Bb
Just take my heart when you go

[Solo] Bb  C  Bb  C  Bb  C
       Ab  Bb  Ab  Bb  Ab  Bb

[Refrão]

D            G              A
Just take my heart when you go (Baby take my heart)
D                G           Bm  A
I don't have the need for it anymore (I´ll always love you)
Bm           Em         C                   Bm  A
I'll always love you, but you're too hard to hold
G            A
Just take my heart
      Bb           C              D
Baby, just take my heart when you go

Take my heart
Just take my heart
Ooh



E|----------3--0-----------|-----------------------|
B|-------3--------3-----0--|-----------------------|
G|-----5-------------5-----|-5---0-----------------|
D|-------------------------|---7---7---------------|
A|--0----------------------|---------7--5--7-------|
E|-------------------------|------------------7----|

E|---------3--0---------------|----------------8---|
B|-------3--------------------|-----------| {12}---|
G|----5-----------------------|-| {12}-------------|
D|-------------------| {12}-----|-------{7}--------|
A|------------------------| {7}-|------------------|
E|-0-------------| {7}----------|------------------|

[Intro 2]

E|------------------10------|-----------10--10--|
B|--10h12--13-12tr-------10-|-12-13r12--12--12--|
G|--0------0---0----0-----0-|-0--0--------------|
D|--0------------------0----|--------------0---0|
A|--------------------------|-------------------|
E|--------------------------|-------------------|

E|------------------------|---------------------|
B|--10-12-13--12tr-8----6-|-8--6h8r6\5--3tr-----|
G|--0--0--10---0---0----0-|-0--0--------0-------|
D|--------------------0---|-------------0-------|
A|------------------------|---------------------|
E|------------------------|-----------------0---|

E|--10h12--13-12tr-------10-|-12-13r12--12--12--|
B|--0------0---0----0-----0-|-0--0--------------|
G|--0------------------0----|--------------0---0|
D|--------------------------|-------------------|
A|--------------------------|-------------------|

E|------------------------|------------------------------|
B|--10-12-13--12tr-8----6-|-8--6h8r6\5--3-5--3h5r3\1---0-|
G|--0--0--10---0---0----0-|-0--0--------0-0------------0-|
D|--------------------0---|----------------------------0-|
A|------------------------|------------------------------|
E|------------------------|------------------------------|


[Intro 3]

E|-------8--------8--------8-----|----------------8--------------------|
B|-----8---8----8---8----8---8---|--------------8---8------------------|
G|--5--------5---------5-------5-|-----5---7S9~~~~~~~~-7S9-7---5| H7-5~~-|
D|-------------------------------|-5| H7---5-----------------------------|
A|-------------------------------|-------------------------------------|
E|-------------------------------|-------------------------------------|

E|-------------------------------|-------------------------------------|
B|--------------5----------------|-------------------------------------|
G|--------------5----------------|-------------------------------------|
D|--------------5----------------|-------------------------------------|
A|--7s8s7p5s3s5s3----------------|-------------------------------------|
E|-------------------------------|-------------------------------------|


Free Time

    C  Bb  F  C  Bb  F

E|-------8--------------8-----------|--------8------------------------|
B|-----8---8----------8---8---------|------8---8----------------------|
G|--5----------5---2----------------| 5s7s5--------5----2--------------|
D|----------------------------------|---------------------------------|
A|--3-----------------------7s8s7p5-|---------------------7s8s7p5-----|
E|-------------6---1~~~~~~~~~~~-----|-------------6----1---------3s1p0|


[Solo]

E|---------------------------------------|
B|-11tr--13p15--11h13r11\10----10--------|
G|--------------------------12----12--10-|
D|---------------------------------------|
A|---------------------------------------|
E|---------------------------------------|

E|------------------------------------------|
B|------------------------------------------|
G|-9-10--12tr---9h10r9----------------------|
D|----------------------12-10-12-10-8-------|
A|--0---------------------------------12-10-|
E|------------------------------------------|

E|-------------------------------|----------------------|
B|---------------9-10----9-10-12-|----------------------|
G|--------------------12---------|-12p14--10\9----9-----|
D|-8tr--10h12tr------------------|-------------12---10--|
A|-------------------------------|----------------------|
E|-------------------------------|----------------------|

E|-18p20tr---22p21--20--------------------|-----------------|
B|---------------------21-----------------|-----------------|
G|-------------------------20--19--20--22-|------22p24---22-|
D|----------------------------------------|-20tr------------|
A|----------------------------------------|-----------------|
E|----------------------------------------|-----------------|

E|----8-----------------------------------------------------------|
B|-11----11\8--------8--11r8h11\8---------------------------------|
G|-------------10p12---------------10--8^----8-10p-8--10r8h10\8\7-|
D|----------------------------------------10----------------------|
A|--0-------------------------------------------------------------|
E|----------------------------------------------------------------|

E|----------------------------------------------|-----------------|
B|----------------------------------------------|-----------------|
G|----7-----------------------------------------|-----------------|
D|-10---| {8}-10-----8----------------------------|-----------------|
A|-------------| {10}--{8}-10*--6--8\6----------6-|-8h10---8h10\8\7-|
E|--0--------------------------------7--4--7----|-----------------|


Fadding Out: (Repetir 7X)

E|-------10-----------10-|
B|----10----10----10-----|
G|--7----------7---------|
D|-----------------------|
A|-----------------------|
E|-----------------------|

E|--------10---------------|-----|
B|-----10----10-5----------|--7--|
G|--7-----------5--5-------|--7--|
D|-------------------5-----|--7--|
A|---------------------7\9-|-----|
F|-------------------------|-----|
Outros vídeos desta música
    36.548 exibições
      • ½ Tom
      • A
      • Bb
      • B
      • C
      • Db
      • D
      • Eb
      • E
      • F
      • F#
      • G
      • Ab
    • Adicionar à lista

    Afinação da cifra

    Afinador online

      0 comentários

      Ver todos os comentários

      Entre para o Cifra Club PRO

      Tenha acesso a benefícios exclusivos no App e no Site

      • Chega de anúncios

      • Badges exclusivas

      • Mais recursos no app do Afinador

      • Atendimento Prioritário

      • Aumente seu limite de lista

      • Ajude a produzir mais conteúdo

      Cifra Club Pro

      Aproveite o Cifra Club com benefícios exclusivos e sem anúncios
      Cifra Club Pro
      Aproveite o Cifra Club com benefícios exclusivos e sem anúncios
      OK