Cifra Club

Supermassive Black Hole

Muse

Tab de baixo: Principal
Selo Cifra Club: esta cifra foi revisada para atender aos critérios oficiais da nossa Equipe de Qualidade.
tom: Afinação:
Intro riff:

G|----------------|----------------|----------------|----------------|
D|----------------|----------------|----------------|----------------|
A|----------------|----------------|----------------|----------------|
E|-0--------------|----------------|-0--------------|----------------|

G|----------------|----------------|----------------|----------------|
D|----------------|----------------|----------------|----------------|
A|----------------|----------------|----------------|----------------|
E|-0--------------|----------------|-0--------------|----------------|

G|----------------|----------------|----------------|-----------------|
D|----------------|----------------|----------------|-----------------|
A|----------------|----------------|----------------|-----------------|
E|-0-0-3-0-0-3-3-3|-0-0-3-0-0-5-5-3|-0-0-3-0-0-3-3-3|-0-0-3-0-0-5-5-7-|


G|----------------|----------------|----------------|----------------|
D|----------------|----------------|----------------|----------------|
A|----------------|----------------|----------------|----------------|
E|-0-0-3-0-0-3-3-3|-0-0-3-0-0-5-5-3|-0-0-3-0-0-3-3-3|-0-0-3-0--------|

Verso 1:

G|----------------|----------------|----------------|----------------|
D|----------------|----------------|----------------|----------------|
A|----------------|----------------|----------------|----------------|
E|-0--------------|----------------|----------------|----------------|

G|----------------|----------------|----------------|----------------|
D|----------------|----------------|----------------|----------------|
A|----------------|----------------|----------------|----------------|
E|----------------|----------------|----------------|----------------|

Refrão:

oooooooooooooooooooaaaaaaaaaaaaaaaaaaaaaaah you set my soul alight
G|----------------|----------------|----------------|-----------------|
D|-----7-----7-7-6|-----5----------|-----9-----8-7-5|-----------------|
A|----------------|----------------|----------------|-----------------|
E|-5-5---5-5------|-3-3---3-3-5-5-6|-7-7---7-7------|-0-0-0-2-2-3-3-4-|

G|----------------|----------------|----------------|-----------------|
D|-----7-----7-7-6|-----5----------|-----9-----8-7-5|-----------------|
A|----------------|----------------|----------------|-----------------|
E|-5-5---5-5------|-3-3---3-3-5-5-6|-7-7---7-7------|---0---2---3---4-|

glaciersmelting   dead of night    superstarssucked supermassive
G|----------------|----------------|----------------|-----------------|
D|-----7-----7-7-6|-----5----------|-----9-----8-7-5|-----------------|
A|----------------|----------------|----------------|-----------------|
E|-5-5---5-5------|-3-3---3-3-5-5-6|-7-7---7-7------|-0-0-0-2-2-3-3-4-|

glaciersmelting   dead of night    superstarssucked intothesupermassive
G|----------------|----------------|----------------|-----------------|
D|-----7-----7-7-6|-----5----------|-----9-----8-7-5|-------------5-4-|
A|----------------|----------------|----------------|-----------------|
E|-5-5---5-5------|-3-3---3-3-5-5-6|-7-7---7-7------|---7-7-6-5-3-----|

Verso 2:

G|----------------|----------------|----------------|----------------|
D|----------------|----------------|----------------|----------------|
A|----------------|----------------|----------------|----------------|
E|-0--------------|----------------|-0--------------|----------------|

G|----------------|----------------|----------------|----------------|
D|----------------|----------------|----------------|----------------|
A|----------------|----------------|----------------|----------------|
E|-0--------------|----------------|-0--------------|----------------|

(Refrão)

Pós Refrão:

(SUPERMASSIVE BLACK HOLE)
G|----------------|----------------|----------------|----------------|
D|----------------|----------------|----------------|----------------|
A|----------------|----------------|----------------|----------------|
E|-0--------------|----------------|-0--------------|----------------|

G|----------------|----------------|----------------|----------------|
D|----------------|----------------|----------------|----------------|
A|----------------|----------------|----------------|----------------|
E|-0--------------|----------------|-0--------------|----------------|

Ponte/Solo:

G|----------------|----------------|----------------|-----------------|
D|----------------|----------------|----------------|-----------------|
A|----------------|----------------|----------------|-----------------|
E|-0-0-3-0-0-3-3-3|-0-0-3-0-0-5-5-3|-0-0-3-0-0-3-3-3|-0-0-3-0-0-5-5-7-|

G|----------------|----------------|----------------|----------------|
D|----------------|----------------|----------------|----------------|
A|----------------|----------------|----------------|----------------|
E|-0-0-3-0-0-3-3-3|-0-0-3-0-0-5-5-3|-0-0-3-0-0-3-3-3|-0-0-3-0--------|

(Refrão)

(Pós-Refrão)
Outros vídeos desta música
    6.086 exibições

    Afinação da cifra

    Afinador online

    0 comentários

    Ver todos os comentários

    Conseguiu tocar?

    8Tocaram0Ainda não

    Grave um vídeo tocando Supermassive Black Hole e nos envie!

    Toque também

    1. Imagem do artista RadioheadCreep Radiohead
    2. Imagem do artista Thirty Seconds To MarsThe Kill Thirty Seconds To Mars
    3. Imagem do artista Franz FerdinandTake Me Out Franz Ferdinand
    4. Imagem do artista PlaceboEvery You Every Me Placebo

    Entre para o Cifra Club PRO

    Tenha acesso a benefícios exclusivos no App e no Site

    • Chega de anúncios

    • Badges exclusivas

    • Mais recursos no app do Afinador

    • Atendimento Prioritário

    • Aumente seu limite de lista

    • Ajude a produzir mais conteúdo

    Cifra Club Pro

    Aproveite o Cifra Club com benefícios exclusivos e sem anúncios
    Cifra Club Pro
    Aproveite o Cifra Club com benefícios exclusivos e sem anúncios
    OK