Cifra Club

Aprenda

If Today Was Your Last Day

Nickelback

Cifra: Completa (violão e guitarra)
tom: Bb (forma dos acordes no tom de A) Capotraste na 1ª casa
Verso:
 Bm                 D              A 
My best friend gave me the best advice
                                           Bm 
He said each day's a gift and not a given right
                 D                          A 
Leave no stone unturned, leave your fears behind
                                       Bm 
And try to take the path less traveled by
                    D                     A 
That first step you take is the longest stride
Refrao:
 A                     Bm 
If today was your last day
E|----------6--------------------6---------------------------3---------------|
B|-----4---------4---4/6------4------4---46---------------------4----6-------|
G|------------------------------------------------------------------------5--|
D|---------------------------------------------------------------------------|
A|---------------------------------------------------------------------------|
E|---------------------------------------------------------------------------|
                      D 
and tomorrow was too late
E|----------6--------------------6---------------------------3---------------|
B|-----4---------4---4/6------4------4---46---------------------4----6-------|
G|------------------------------------------------------------------------5--|
D|---------------------------------------------------------------------------|
A|---------------------------------------------------------------------------|
E|---------------------------------------------------------------------------|
                               A 
Could you say goodbye to yesterday?
E|----------6--------------------6---------------------------3---------------|
B|-----4---------4---4/6------4------4---46---------------------4----6-------|
G|------------------------------------------------------------------------5--|
D|---------------------------------------------------------------------------|
A|---------------------------------------------------------------------------|
E|---------------------------------------------------------------------------|
                                     Bm 
Would you live each moment like your last?
E|----------6--------------------6---------------------------3---------------|
B|-----4---------4---4/6------4------4---46---------------------4----6-------|
G|------------------------------------------------------------------------5--|
D|---------------------------------------------------------------------------|
A|---------------------------------------------------------------------------|
E|---------------------------------------------------------------------------|
                          D 
Leave old pictures in the past
E|----------6--------------------6---------------------------3---------------|
B|-----4---------4---4/6------4------4---46---------------------4----6-------|
G|------------------------------------------------------------------------5--|
D|---------------------------------------------------------------------------|
A|---------------------------------------------------------------------------|
E|---------------------------------------------------------------------------|
                      A 
Donate every dime you have?
E|----------6--------------------6---------------------------3---------------|
B|-----4---------4---4/6------4------4---46---------------------4----6-------|
G|------------------------------------------------------------------------5--|
D|---------------------------------------------------------------------------|
A|---------------------------------------------------------------------------|
E|---------------------------------------------------------------------------|
                       Bm     D     A 
If today was your last day
E|----------6--------------------6---------------------------3---------------|
B|-----4---------4---4/6------4------4---46---------------------4----6-------|
G|------------------------------------------------------------------------5--|
D|---------------------------------------------------------------------------|
A|---------------------------------------------------------------------------|
E|---------------------------------------------------------------------------|

Verso:
 Bm          D                       A 
Against the grain should be a way of life
                                           Bm 
What's worth the prize is always worth the fight
              D                              A 
Every second counts 'cause there's no second try
                                  Bm 
So live like you'll never live it twice
               D                     A 
Don't take the free ride in your own life

Refrão:
 A                     Bm 
If today was your last day
E|----------6--------------------6---------------------------3---------------|
B|-----4---------4---4/6------4------4---46---------------------4----6-------|
G|------------------------------------------------------------------------5--|
D|---------------------------------------------------------------------------|
A|---------------------------------------------------------------------------|
E|---------------------------------------------------------------------------|
                      D 
and tomorrow was too late
E|----------6--------------------6---------------------------3---------------|
B|-----4---------4---4/6------4------4---46---------------------4----6-------|
G|------------------------------------------------------------------------5--|
D|---------------------------------------------------------------------------|
A|---------------------------------------------------------------------------|
E|---------------------------------------------------------------------------|
                               A 
Could you say goodbye to yesterday?
E|----------6--------------------6---------------------------3---------------|
B|-----4---------4---4/6------4------4---46---------------------4----6-------|
G|------------------------------------------------------------------------5--|
D|---------------------------------------------------------------------------|
A|---------------------------------------------------------------------------|
E|---------------------------------------------------------------------------|
                                     Bm 
Would you live each moment like your last?
E|----------6--------------------6---------------------------3---------------|
B|-----4---------4---4/6------4------4---46---------------------4----6-------|
G|------------------------------------------------------------------------5--|
D|---------------------------------------------------------------------------|
A|---------------------------------------------------------------------------|
E|---------------------------------------------------------------------------|
                          D 
Leave old pictures in the past
E|----------6--------------------6---------------------------3---------------|
B|-----4---------4---4/6------4------4---46---------------------4----6-------|
G|------------------------------------------------------------------------5--|
D|---------------------------------------------------------------------------|
A|---------------------------------------------------------------------------|
E|---------------------------------------------------------------------------|
                      A 
Donate every dime you have?
E|----------6--------------------6---------------------------3---------------|
B|-----4---------4---4/6------4------4---46---------------------4----6-------|
G|------------------------------------------------------------------------5--|
D|---------------------------------------------------------------------------|
A|---------------------------------------------------------------------------|
E|---------------------------------------------------------------------------|
                                   Bm 
Would you call old friends you never see?
E|----------6--------------------6---------------------------3---------------|
B|-----4---------4---4/6------4------4---46---------------------4----6-------|
G|------------------------------------------------------------------------5--|
D|---------------------------------------------------------------------------|
A|---------------------------------------------------------------------------|
E|---------------------------------------------------------------------------|
             D 
Reminisce of memories
E|----------6--------------------6---------------------------3---------------|
B|-----4---------4---4/6------4------4---46---------------------4----6-------|
G|------------------------------------------------------------------------5--|
D|---------------------------------------------------------------------------|
A|---------------------------------------------------------------------------|
E|---------------------------------------------------------------------------|
                       A 
Would you forgive your enemies?
E|----------6--------------------6---------------------------3---------------|
B|-----4---------4---4/6------4------4---46---------------------4----6-------|
G|------------------------------------------------------------------------5--|
D|---------------------------------------------------------------------------|
A|---------------------------------------------------------------------------|
E|---------------------------------------------------------------------------|
                                        Bm 
Would you find that one you're dreamin' of?
E|----------6--------------------6---------------------------3---------------|
B|-----4---------4---4/6------4------4---46---------------------4----6-------|
G|------------------------------------------------------------------------5--|
D|---------------------------------------------------------------------------|
A|---------------------------------------------------------------------------|
E|---------------------------------------------------------------------------|
                          D 
Swear up and down to God above
E|----------6--------------------6---------------------------3---------------|
B|-----4---------4---4/6------4------4---46---------------------4----6-------|
G|------------------------------------------------------------------------5--|
D|---------------------------------------------------------------------------|
A|---------------------------------------------------------------------------|
E|---------------------------------------------------------------------------|
                         A 
That you finally fall in love
E|----------6--------------------6---------------------------3---------------|
B|-----4---------4---4/6------4------4---46---------------------4----6-------|
G|------------------------------------------------------------------------5--|
D|---------------------------------------------------------------------------|
A|---------------------------------------------------------------------------|
E|---------------------------------------------------------------------------|
                       E 
If today was your last day
E|----------6--------------------6---------------------------3---------------|
B|-----4---------4---4/6------4------4---46---------------------4----6-------|
G|------------------------------------------------------------------------5--|
D|---------------------------------------------------------------------------|
A|---------------------------------------------------------------------------|
E|---------------------------------------------------------------------------|
                       D 
If today was your last day
E|----------6--------------------6---------------------------3---------------|
B|-----4---------4---4/6------4------4---46---------------------4----6-------|
G|------------------------------------------------------------------------5--|
D|---------------------------------------------------------------------------|
A|---------------------------------------------------------------------------|
E|---------------------------------------------------------------------------|
                    A                  E 
Would you make your mark by mending a broken heart?
E|----------6--------------------6---------------------------3---------------|
B|-----4---------4---4/6------4------4---46---------------------4----6-------|
G|------------------------------------------------------------------------5--|
D|---------------------------------------------------------------------------|
A|---------------------------------------------------------------------------|
E|---------------------------------------------------------------------------|
                        D                     A 
You know it's never too late to shoot for the stars
E|----------6--------------------6---------------------------3---------------|
B|-----4---------4---4/6------4------4---46---------------------4----6-------|
G|------------------------------------------------------------------------5--|
D|---------------------------------------------------------------------------|
A|---------------------------------------------------------------------------|
E|---------------------------------------------------------------------------|
              E 
Regardless of who you are
E|----------6--------------------6---------------------------3---------------|
B|-----4---------4---4/6------4------4---46---------------------4----6-------|
G|------------------------------------------------------------------------5--|
D|---------------------------------------------------------------------------|
A|---------------------------------------------------------------------------|
E|---------------------------------------------------------------------------|
                  D 
So do whatever it takes
E|----------6--------------------6---------------------------3---------------|
B|-----4---------4---4/6------4------4---46---------------------4----6-------|
G|------------------------------------------------------------------------5--|
D|---------------------------------------------------------------------------|
A|---------------------------------------------------------------------------|
E|---------------------------------------------------------------------------|    A             E 
'Cause you can't rewind a moment in this life
E|----------6--------------------6---------------------------3---------------|
B|-----4---------4---4/6------4------4---46---------------------4----6-------|
G|------------------------------------------------------------------------5--|
D|---------------------------------------------------------------------------|
A|---------------------------------------------------------------------------|
E|---------------------------------------------------------------------------|
                          D 
Let nothin' stand in your way
E|----------6--------------------6---------------------------3---------------|
B|-----4---------4---4/6------4------4---46---------------------4----6-------|
G|------------------------------------------------------------------------5--|
D|---------------------------------------------------------------------------|
A|---------------------------------------------------------------------------|
E|---------------------------------------------------------------------------|
                   A              E 
Cause the hands of time are never on your side
E|----------6--------------------6---------------------------3---------------|
B|-----4---------4---4/6------4------4---46---------------------4----6-------|
G|------------------------------------------------------------------------5--|
D|---------------------------------------------------------------------------|
A|---------------------------------------------------------------------------|
E|---------------------------------------------------------------------------|

 E                     Bm 
If today was your last day
E|----------6--------------------6---------------------------3---------------|
B|-----4---------4---4/6------4------4---46---------------------4----6-------|
G|------------------------------------------------------------------------5--|
D|---------------------------------------------------------------------------|
A|---------------------------------------------------------------------------|
E|---------------------------------------------------------------------------|
                     D 
and tomorrow was too late
E|----------6--------------------6---------------------------3---------------|
B|-----4---------4---4/6------4------4---46---------------------4----6-------|
G|------------------------------------------------------------------------5--|
D|---------------------------------------------------------------------------|
A|---------------------------------------------------------------------------|
E|---------------------------------------------------------------------------|
                               A 
Could you say goodbye to yesterday?
E|----------6--------------------6---------------------------3---------------|
B|-----4---------4---4/6------4------4---46---------------------4----6-------|
G|------------------------------------------------------------------------5--|
D|---------------------------------------------------------------------------|
A|---------------------------------------------------------------------------|
E|---------------------------------------------------------------------------|
                                     Bm 
Would you live each moment like your last?
E|----------6--------------------6---------------------------3---------------|
B|-----4---------4---4/6------4------4---46---------------------4----6-------|
G|------------------------------------------------------------------------5--|
D|---------------------------------------------------------------------------|
A|---------------------------------------------------------------------------|
E|---------------------------------------------------------------------------|
                          D 
Leave old pictures in the past
E|----------6--------------------6---------------------------3---------------|
B|-----4---------4---4/6------4------4---46---------------------4----6-------|
G|------------------------------------------------------------------------5--|
D|---------------------------------------------------------------------------|
A|---------------------------------------------------------------------------|
E|---------------------------------------------------------------------------|
                      A 
Donate every dime you have?
E|----------6--------------------6---------------------------3---------------|
B|-----4---------4---4/6------4------4---46---------------------4----6-------|
G|------------------------------------------------------------------------5--|
D|---------------------------------------------------------------------------|
A|---------------------------------------------------------------------------|
E|---------------------------------------------------------------------------|    Bm 
Would you call old friends you never see?
E|----------6--------------------6---------------------------3---------------|
B|-----4---------4---4/6------4------4---46---------------------4----6-------|
G|------------------------------------------------------------------------5--|
D|---------------------------------------------------------------------------|
A|---------------------------------------------------------------------------|
E|---------------------------------------------------------------------------|
             D 
Reminisce of memories
E|----------6--------------------6---------------------------3---------------|
B|-----4---------4---4/6------4------4---46---------------------4----6-------|
G|------------------------------------------------------------------------5--|
D|---------------------------------------------------------------------------|
A|---------------------------------------------------------------------------|
E|---------------------------------------------------------------------------|
                       A 
Would you forgive your enemies?
E|----------6--------------------6---------------------------3---------------|
B|-----4---------4---4/6------4------4---46---------------------4----6-------|
G|------------------------------------------------------------------------5--|
D|---------------------------------------------------------------------------|
A|---------------------------------------------------------------------------|
E|---------------------------------------------------------------------------|
                                        Bm 
Would you find that one you're dreamin' of?
E|----------6--------------------6---------------------------3---------------|
B|-----4---------4---4/6------4------4---46---------------------4----6-------|
G|------------------------------------------------------------------------5--|
D|---------------------------------------------------------------------------|
A|---------------------------------------------------------------------------|
E|---------------------------------------------------------------------------|
                          D 
Swear up and down to God above
E|----------6--------------------6---------------------------3---------------|
B|-----4---------4---4/6------4------4---46---------------------4----6-------|
G|------------------------------------------------------------------------5--|
D|---------------------------------------------------------------------------|
A|---------------------------------------------------------------------------|
E|---------------------------------------------------------------------------|
                         A 
That you finally fall in love
E|----------6--------------------6---------------------------3---------------|
B|-----4---------4---4/6------4------4---46---------------------4----6-------|
G|------------------------------------------------------------------------5--|
D|---------------------------------------------------------------------------|
A|---------------------------------------------------------------------------|
E|---------------------------------------------------------------------------|
                       Bm 
If today was your last day

E|----------6--------------------6---------------------------3---------------|
B|-----4---------4---4/6------4------4---46---------------------4----6-------|
G|------------------------------------------------------------------------5--|
D|---------------------------------------------------------------------------|
A|---------------------------------------------------------------------------|
E|---------------------------------------------------------------------------|
Composição de Chad Kroeger / Daniel Adair / Mike Kroeger / Ryan Peake
Colaboração e revisão:
  • Jose Junior
6.156 exibições
    • ½ Tom
    • A
    • Bb
    • B
    • C
    • Db
    • D
    • Eb
    • E
    • F
    • F#
    • G
    • Ab
  • Adicionar à lista

    0 comentários

    Ver todos os comentários
    00:00 / 00:00
    outros vídeos desta música
    repetir qualidade Automático
    Outros vídeos desta música
    00:00 / 00:00
    Automático

    Cifra Club Pro

    Aproveite o Cifra Club com benefícios exclusivos e sem anúncios
    Cifra Club Pro
    Aproveite o Cifra Club com benefícios exclusivos e sem anúncios
    OK