Cifra Club

Over the Hills and Far Away

Nightwish

Cifra: Principal (violão e guitarra)
tom: A
INTRO
RIFF (0:28) x 2
E|-0-2-3-0-0-5-0-0-7-0-0-8-7-5-7-0-0-0---0-2-5-3-2-----------------------------|
B|-------------------------------------3---------------------------------------|
G|-----------------------------------------------------------------------------|
D|-----------------------------------------------------------------------------|
A|-----------------------------------------------------------------------------|
E|-----------------------------------------------------------------------------|

E|-0-2-3-0-0-5-0-0-7-0-0-8-7-5-7-5-5-5-7-8-10-8-7------------------------------|
B|------------------------------------------------10-8-7-----------------------|
G|-----------------------------------------------------------------------------|
D|-----------------------------------------------------------------------------|
A|-----------------------------------------------------------------------------|
E|-----------------------------------------------------------------------------|

VERSO (0:43)
E|-----------------------------------------------------------------------------|
B|-----------------------------------------------------------------------------|
G|-----------------------------------------------------------------------------|
D|-------------------7-7-7-------------7-7-7-9-9-9-----------------------------|
A|-2-2-2-5-5-5-2-2-2-5-5-5-2-2-2-5-5-5-5-5-5-7-7-7-----------------------------|
E|-0-0-0-3-3-3-0-0-0-------0-0-0-3-3-3-----------------------------------------|
   p.m. . . . . . . . . . . . . . . . . . . . . . .

PONTE (0:57)
E|-----------------------------------------------------------------------------|
B|-----------------------------------------------------------------------------|
G|-----------------------------------------------------------------------------|
D|-5-5-5-7-7-7-5-5-5-7-7-7---4-----------7-------------------------------------|
A|-3-3-3-5-5-5-3-3-3-5-5-5---2-----------5-------------------------------------|
E|-----------------------------------------------------------------------------|
  p.m. . . . . . . . . . .

REFRÃO (1:11)
E|-----------------------------------------------------------------------------|
B|-----------------------------------------------------------------------------|
G|---------7---9---7-------5---7-----------------------------------------------|
D|-2---5---7---9---7---5---5---7------------------------2X---------------------|
A|-2---5---5---7---5---5---3---5-----------------------------------------------|
E|-0---3---------------3-------------------------------------------------------|

Antes do 2º verso, toque isso :
E|-0-2-3-0-0-5-0-0-7-0-0-8-7-5-7-0-0-0---0-2-5-3-2-0-2-------------------------|
B|-------------------------------------3---------------------------------------|
G|-----------------------------------------------------------------------------|
D|-----------------------------------------------------------------------------|
A|-----------------------------------------------------------------------------|
E|-----------------------------------------------------------------------------|

VERSO (1:29)
E|-----------------------------------------------------------------------------|
B|-----------------------------------------------------------------------------|
G|-----------------------------------------------------------------------------|
D|-------------------7-7-7-------------7-7-7-9-9-9-----------------------------|
A|-2-2-2-5-5-5-2-2-2-5-5-5-2-2-2-5-5-5-5-5-5-7-7-7-----------------------------|
E|-0-0-0-3-3-3-0-0-0-------0-0-0-3-3-3-----------------------------------------|
   p.m. . . . . . . . . . . . . . . . . . . . . . .

PONTE (1:42)
E|-----------------3-3-2-2-3-3-2-2-----------------3-3-2-2---------------------|
B|-5-5-3-3-5-5-3-3-3-3-3-3-3-3-3-3-5-5-3-3-5-5-3-3-3-3-3-3---------------------|
G|-5-5-5-5-5-5-5-5-2-2-2-2-2-2-2-2-5-5-5-5-5-5-5-5-2-2-2-2---4-----------7-----|
D|-5-5-5-5-5-5-5-5-0-0-0-0-0-0-0-0-5-5-5-5-5-5-5-5-0-0-0-0---2-----------5-----|
A|-3-3-3-3-3-3-3-3-----------------3-3-3-3-3-3-3-3-----------------------------|
E|-----------------------------------------------------------------------------|

REFRÃO (1:57)
E|-----------------------------------------------------------------------------|
B|-----------------------------------------------------------------------------|
G|---------7---9---7-------5---7-----------------------------------------------|
D|-2---5---7---9---7---5---5---7------------------------2X---------------------|
A|-2---5---5---7---5---5---3---5-----------------------------------------------|
E|-0---3---------------3-------------------------------------------------------|

E|-----------------------------------------------------------------------------|
B|-----------------------------------------------------------------------------|
G|-----------------------------------------------------------------------------|
D|-------------------7-7-7-----------------------------------------------------|
A|-2-2-2-5-5---5-5-5-5-5-5-----------------------------------------------------|
E|-0-0-0-3-3---3-3-3-----------------------------------------------------------|
  p.m. . . . . . . . . . .

depois disto, não tem guita
aos 2:28, toque a frase duas vezes e depois esta parte junto com o teclado.
E|-----------------------------------------------------------------------------|
B|-----------------------------------------------------------------------------|
G|-----------------------------------------------------------------------------|
D|-----------------------------------------------------------------------------|
A|-2---2-2-2-2---2-------2---2-2-2-2---2-2-2-2---2-2-2-2-2-2-2-2---------------|
E|-0---0-0-0-0---0-------0---0-0-0-0---0-0-0-0---0-0-0-0-0-0-0-0---------------|
   p.m. . . . . . .          p.m. . . . . . . . . . . . . . . . .

SOLO (2:56)

E|-0-2-3-0-0-5-0-0-7-0-0-8-0-0-12-12-12-10/------------------------------------|
B|-------------------------------------------9-7---/10^-^-^-^-^----------------|
G|-----------------------------------------------6-----------------------------|
D|-----------------------------------------------------------------------------|
A|-----------------------------------------------------------------------------|
E|-----------------------------------------------------------------------------|

E|-----------------------------------------------------------------------------|
B|-5h8p5h8p5-5h7p5h7p5-5h8p5h8-------------------------------------------------|
G|------------------------------9*------------------------------------7*-9*----|
D|--------------------------------------5-----7-----5-----7-----5*-7*----------|
A|----------------------------------5h7---7p5---5h7---7p5---5h7----------------|
E|-----------------------------------------------------------------------------|

E|----------17-19-22-----------------------------------------------------------|
B|-15-17-18----------15*-------------------------------------------------------|
G|-----------------------------------------------------------------------------|
D|-----------------------------------------------------------------------------|
A|-----------------------------------------------------------------------------|
E|-----------------------------------------------------------------------------|

PONTE (3:10)
E|-----------------------------------------------------------------------------|
B|-----------------------------------------------------------------------------|
G|-----------------------------------------------------------------------------|
D|-5-5-5-7-7-7-5-5-5-7-7-7---4-----------7-------------------------------------|
A|-3-3-3-5-5-5-3-3-3-5-5-5---2-----------5-------------------------------------|
E|-----------------------------------------------------------------------------|
  p.m. . . . . . . . . . .

REFRÃO (3:38)
E|-----------------------------------------------------------------------------|
B|-----------------------------------------------------------------------------|
G|---------9--11---9-------7---9-----------------------------------------------|
D|-4---7---9--11---9---7---7---9-------------4X--------------------------------|
A|-4---7---7---9---7---7---5---7-----------------------------------------------|
E|-2---5---------------5-------------------------------------------------------|

E|-----------------------------------------------------------------------------|
B|-----7-9-10~-----------------------------------------------------------------|
G|---6-------------9-------7---9-----------------------------------------------|
D|-4---------------9---7---7---9-------------2X--------------------------------|
A|-4---------------7---7---5---7-----------------------------------------------|
E|-2-------------------5-------------------------------------------------------|

E|-----------------------------------------------------------------------------|
B|-----------------------------------------------------------------------------|
G|---------9--11---9-------7---9-----------------------------------------------|
D|-4---7---9--11---9---7---7---9-------------Fade Out...-----------------------|
A|-4---7---7---9---7---7---5---7-----------------------------------------------|
E|-2---5---------------5-------------------------------------------------------|
Composição de Gary Moore
Colaboração e revisão:
  • Gabriel Lorena
50.571 exibições
    • ½ Tom
    • A
    • Bb
    • B
    • C
    • Db
    • D
    • Eb
    • E
    • F
    • F#
    • G
    • Ab
  • Adicionar à lista

    0 comentários

    Ver todos os comentários

    Conseguiu tocar?

    4 Tocaram 0 Ainda não

    Grave um vídeo tocando Over the Hills and Far Away e nos envie!

    00:00 / 00:00
    Outros vídeos desta música
    Repetir Qualidade Automático
    Outros vídeos desta música
    00:00 / 00:00
    Automático

    Cifra Club Pro

    Aproveite o Cifra Club com benefícios exclusivos e sem anúncios
    Cifra Club Pro
    Aproveite o Cifra Club com benefícios exclusivos e sem anúncios
    OK