Cifra Club

Aprenda

Destino de Peão

Noel Guarany

Cifra: Principal (violão e guitarra)
tom: A
 Intro: E  A  E  A

E|-0-0-12-10-|-0-0-12-10-|-0-0-10-9-|-0-0-10-9-|-0-0-9-|-------------------------|
B|-----------|-----------|----------|----------|-------|-12-10-9-----------------|
G|-----------|-----------|----------|----------|-------|---------11-9------------|
D|-----------|-----------|----------|----------|-------|--------------12-11-9----|
A|-----------|-----------|----------|----------|-------|----------------------12-|
E|-----------|-----------|----------|----------|-------|-------------------------|

E|---------9-|-12-9------|----------|----------|-------|-------------------------|
B|------10---|------10---|----------|----------|-------|-------------------------|
G|----9------|---------9-|----------|----------|-------|-------------------------|
D|-11--------|-----------|----------|----------|-------|-------------------------|
A|-----------|-----------|0---------|----------|-------|-------------------------|
E|-----------|-----------|----------|----------|-------|-------------------------|

E|---------------------2--2-|-----2--0---------------|-------------------------|
B|---------------------3--3-|------------3---2---2-2-|-----2---0-----------0-0-|
G|-2-1-2-4-2-1-0-------2--2-|---2---1--------2---2-2-|---2---1-----2---1---1-1-|
D|---------------4--------4-|----------4-----2---2-2-|-----------4---2-----2-2-|
A|-------------------2------|-0--------------0-0-----|-0-----------------2---2-|
E|--------------------------|------------------------|-------------------------|

E|----------------|---------------------|
B|-------0-2-3----|-------0-----2-------|
G|-----1----------|-----1-------2-------|
D|---2------------|---2---------2-------|
A|-2--------------|-2-----------0-------|
E|----------------|---------------------|

          E7                     A
Hoje é domingo e encilhei meu estradeiro
                   E                         A
Já botei água-de-cheiro, não me falta quase nada
              E7                        A
Saio ao tranquito no meu trajinho sem luxo
                    E                         A  A7
Pois assim faz um gaúcho que vai ver sua namorada

                   D                          A
Trabalhei o mês inteiro, encilhei muito aporreado
                       E                        A   A7
Consertei todo o alambrado, lá na invernada do fundo
        D                    A
Sentia fundo a sinfonia dos bichos
                    E7                               A      (bis)
Para aumentar o cambicho, com a flor mais linda do mundo

 Intro: E  A  E  A

E|-0-0-12-10-|-0-0-12-10-|-0-0-10-9-|-0-0-10-9-|-0-0-9-|-------------------------|
B|-----------|-----------|----------|----------|-------|-12-10-9-----------------|
G|-----------|-----------|----------|----------|-------|---------11-9------------|
D|-----------|-----------|----------|----------|-------|--------------12-11-9----|
A|-----------|-----------|----------|----------|-------|----------------------12-|
E|-----------|-----------|----------|----------|-------|-------------------------|

E|---------9-|-12-9------|----------|----------|-------|-------------------------|
B|------10---|------10---|----------|----------|-------|-------------------------|
G|----9------|---------9-|----------|----------|-------|-------------------------|
D|-11--------|-----------|----------|----------|-------|-------------------------|
A|-----------|-----------|0---------|----------|-------|-------------------------|
E|-----------|-----------|----------|----------|-------|-------------------------|

E|---------------------2--2-|-----2--0---------------|-------------------------|
B|---------------------3--3-|------------3---2---2-2-|-----2---0-----------0-0-|
G|-2-1-2-4-2-1-0-------2--2-|---2---1--------2---2-2-|---2---1-----2---1---1-1-|
D|---------------4--------4-|----------4-----2---2-2-|-----------4---2-----2-2-|
A|-------------------2------|-0--------------0-0-----|-0-----------------2---2-|
E|--------------------------|------------------------|-------------------------|

E|----------------|---------------------|
B|-------0-2-3----|-------0-----2-------|
G|-----1----------|-----1-------2-------|
D|---2------------|---2---------2-------|
A|-2--------------|-2-----------0-------|
E|----------------|---------------------|


        E7                          A
Queria tanto dar um presente pra prenda
                  E                            A
Ponta de gado, fazenda, e um montão de coisas mais
         E7                             A
Dizer palavras, que sei e penso em segredo
                          E                       A  A7
E que só em pensar tenho medo por isso não sou capaz

                D                         A
Eu até tive pensando em construir um ranchinho
                   E                          A  A7
Nem que seja pequeninho, já vivi muito em galpão
           D                        A
Se ela quisesse, que coisa linda seria
                E7                      A     (bis)
À Deus agradeceria, o meu destino de peão
Composição de Noel Guarany
Colaboração e revisão:
35.785 exibições
    • ½ Tom
    • A
    • Bb
    • B
    • C
    • Db
    • D
    • Eb
    • E
    • F
    • F#
    • G
    • Ab
  • Adicionar à lista

    0 comentários

    Ver todos os comentários

    Conseguiu tocar?

    5 Tocaram 0 Ainda não

    Grave um vídeo tocando Destino de Peão e nos envie!

    00:00 / 00:00
    Outros vídeos desta música
    Repetir Qualidade Automático
    Outros vídeos desta música
    00:00 / 00:00
    Automático

    Cifra Club Pro

    Aproveite o Cifra Club com benefícios exclusivos e sem anúncios
    Cifra Club Pro
    Aproveite o Cifra Club com benefícios exclusivos e sem anúncios
    OK