Cifra Club

Súplica Cearense

O Rappa

Cifra: Principal
exibições 630.113
Tom: A
[Riff 1]
E|------------------------------------------------|
B|------------------------------------------------|
G|------------------------------------------------|
D|------------------------------------------------|
A|-----2-----2------------------------------------|
E|-2-4---2-4---3-0--------------------------------|

[Riff 2]
E|------------------------------------------------|
B|------------------------------------------------|
G|------------------------------------------------|
D|----------------------4/6-----------------------|
A|-----2-----2----2/4-2---------------------------|
E|-2-4---2-4---3~---------------------------------|

[Riff 3]
E|-10-10-9--10--10-10-9--7--9--9--7-9---9--9--7-9-|
B|-10-10-10-10--10-10-10-9--10-10-9-10--10-10-9-10|
G|------------------------------------------------|
D|------------------------------------------------|
A|------------------------------------------------|
E|------------------------------------------------|

E|-10-10-9--10--10-10-9--9---9--9--7-9------------|
B|-10-10-10-10--10-10-10-10--10-10-9-10-----------|
G|------------------------------------------------|
D|------------------------------------------------|
A|------------------------------------------------|
E|------------------------------------------------|

[Riff 4]
E|-10-10-9--10--10-10-9--7--9--9--7-9---9--9--7-9-|
B|-10-10-10-10--10-10-10-9--10-10-9-10--10-10-9-10|
G|------------------------------------------------|
D|------------------------------------------------|
A|------------------------------------------------|
E|------------------------------------------------|

E|-10-10-9--10--10-10-9--9------------------------|
B|-10-10-10-10--10-10-10-10---12-14-12-14---------|
G|----------------------------13-14-13-14---------|
D|------------------------------------------------|
A|------------------------------------------------|
E|------------------------------------------------|

E|--------------12--------------------------------|
B|-14-12-14-13--14-14-14--------------------------|
G|-14-13-14-12-----14-14--------------------------|
D|------------------------------------------------|
A|------------------------------------------------|
E|------------------------------------------------|

[Riff Final]
E|------------------------------------------------|
B|------------------------------------------------|
G|------------------------------------------------|
D|---4-2-4-2----2-4-2-4-2-------------------------|
A|------------------------------------------------|
E|-2----------2-----------------------------------|

[Intro]  F#m  C#m  Bm  F#m  E
         F#m  C#m  Bm  F#m  E
         F#m  C#m  Bm  F#m  E

F#m                             C#m
Oh! Deus, perdoe esse pobre coitado
                         Bm
Que de joelhos rezou um bocado
                    F#m              C#m
Pedindo para chuva cair, cair sem parar
F#m                               C#m
Oh! Deus, será que o senhor se zangou
                     Bm
E só por isso que o sol se arretirou
         F#m                 C#m
Fazendo cair toda chuva que há
     Bm
Oh! senhor, pedi pro sol
                    F#m
Se esconder um pouquinho
                             D
Pedi pra chover, mas chover de mansinho
                        E
Pra ver se nascia uma planta, uma planta no chão
         Bm                    F#m
Oh! meu Deus, se eu não rezei direito
              D
A culpa é do sujeito
                                   C#m
Desse pobre que nem sabe fazer a oração

F#m C#m Bm F#m E
Oh oh oh oh
F#m C#m Bm F#m E
Oh oh oh oh

 [Riff 1]
Meu deus, perdoe eu encher

os meus olhos de água
                        [Riff 2]
e ter lhe pedido cheio de mágoa

pro sol inclemente se arretirar,retirar
       [Riff 3]
desculpe pedir a toda hora pra chegar o inverno

e agora o inferno queima o meu humilde Ceará

        [Riff 4]
oh! senhor, pedi pro sol

se esconder um pouquinho

pedi pra chover, mas chover de mansinho

pra ver se nascia uma planta no chão,planta no chao

[Riff 1]
Oh oh oh oh
[Riff 1]
Oh oh oh oh
[Riff 1]
Oh oh oh oh
[Riff 1]
Oh oh oh oh

[Riff Final]
Ganancia demais
A chuva não cai mais
Corro demais
Política demais
Tristeza demais
Interesse tem demais
Ganancia demais
A Fome demais
A Falta demais
Promessa demais
Seca demais
A chuva não tem Mais
Ganancia demais
Chuva tem não tem não tem é demais
Pobreza demais
Povo tem demais

O povo sofre demais
Acordes para:

    0 comentários

      mostrar mais comentários

      Conseguiu tocar?

      51tocaram0ainda não

      Grave um vídeo tocando Súplica Cearense e mande pra gente!

      00:00 / 00:00
      outros vídeos desta música
      repetirqualidadeautomática
      Outro vídeos desta música
        00:00 / 00:00
        automática
        OK