Cifra Club

Aprenda

Eternal Rains Will Come

Opeth

Cifra: Principal (violão e guitarra)
tom: C
Intro: 
D5  D5/C
D#/G  D5
D5  D5/C
D#/G

|-----------------------|
|-----------------------|
|-----------------------|
|----------0------------|
|--0--------------------|
|------4-------1--------| (4x)

   E5     E11+
|-----------------------|-----------------------|
|---------5-------------|-----------------------|
|---------3-------------|--9---8---12---13------|
|-2---2---2-------------|-----------------------|
|-2---2---2-------------|--7---6---10---11------|
|-0---0---0-------------|-----------------------|

   E5     E11+
|-----------------------|---------------|
|---------5-------------|---------------|
|---------3-------------|--9---8--------|
|-2---2---2-------------|---------------|
|-2---2---2-------------|--7---6--------|
|-0---0---0-------------|----------6----|

|-----------------------|
|-----------------------|
|-----------------------|
|----------0------------|
|--0--------------------|
|------4-------1--------| (4x)

                                                      D5
|-------------------------|-------------------------|---------------|
|-------------------------|-------------------------|---------------|
|-------------------------|-------------------------|---------------|
|--5----5--4----4--3----3-|-2----2--1----1--0----0--|--7------------|
|-------------------------|-------------------------|--5------------|
|-------------------------|-------------------------|--5------------|

   D5      F                 C       D5               F5              G5
|-------------------------|-----------------------|--------------------------|
|---------10--------8h-10-|-----------------------|--------------------------|
|--7----------------------|--9------7--------7h-9-|--10----9--7----9---------|
|-------------------------|-----------------------|-------------------7/-5---|
|-------------------------|-----------------------|--------------------------|
|-------------------------|-----------------------|--------------------------|

      Bm                 D5      F                 C       D5
|---------------------|-------------------------|-------------------------|
|---------------------|---------10--------8h-10-|-------------------------|
|---------------------|--7----------------------|--9----10--7--------7h-9-|
|--3------------------|-------------------------|-------------------------|
|-----5---------------|-------------------------|-------------------------|
|---------------------|-------------------------|-------------------------|
    F5              G5            Bm
|--------------------------|------------------------|
|---------------------8----|--10--------------------|
|--9\-10---9--7----9-------|------9h7---------------|
|--------------------------|------------------------|
|--------------------------|------------------------|
|--------------------------|------------------------|

Verso:

(D5   D5/C   Gm/Bb G5  A4 C4 G4)  x4

D5   D5/C              Gm/Bb G5  A4 C4 G4
   Eternal rains will come  

D5   D5/C             Gm/Bb G5  A4 C4 G4
   We should say goodbye

D5   D5/C         Gm/Bb G5  A4 C4 G4
   Suffer on our own

D5   D5/C                   Gm/Bb G5  A4 C4 G4
   All their thoughts were wrong


|------------------------|
|------------------------|
|--------------0---2--3--|
|--0---2---3-------------|
|------------------------|
|------------------------|

Refrão:

G                     Gm                         F    G4 G
  So hard to keep the darkness from seeping through

Gm
  When the flood comes to drown us

Am
 There's nothing we can do


Solo base: 

(D5   D5/C   Gm/Bb G5  A4 C4 G4)  x4

Verso:

D5   D5/C          Gm/Bb G5  A4 C4 G4
   Told me not to wait 

D5   D5/C                  Gm/Bb G5  A4 C4 G4
   Unless I could wait forever

D5   D5/C                   Gm/Bb G5  A4 C4 G4
   Cause there's no time for us

D5   D5/C              Gm/Bb G5  A4 C4 G4
   To comfort in what was

|------------------------|
|------------------------|
|--------------0---2--3--|
|--0---2---3-------------|
|------------------------|
|------------------------|

Refrão:

G                     Gm                         F    G4 G
  So hard to keep the darkness from seeping through

Gm
  When the flood comes to drown us

Am
 There's nothing we can do


Ponte:
|-----------------------|-----------------------|
|-----------------------|-----------------------|
|-----------------------|-----------------------|
|-----------------------|-----------------------|
|--5---3---5----5---3---|--5---3---5----5---3---|
|----------5------------|-----------------------|x8

{{{{
|------------------------|----------------------------------------|
|------------------------|----------------------------------------|
|--8p-7----7--8p-7----7--|--8p-7-8\-11--8-11-8-11-12-11-8-11-8-7--|
|-------10---------10----|----------------------------------------|
|------------------------|----------------------------------------|
|------------------------|----------------------------------------|

|------------------------|-------------------------------------|
|------------------------|-------7-8--7-8-10-11--10-8-10-8-----|
|--8p-7----7--8p-7----7--|--8p-7-------------------------------|
|-------10---------10----|---------------------------------10--|
|------------------------|-------------------------------------|
|------------------------|-------------------------------------|
 (2x)

(D5)

D5  Dm    D5/E  G5/C  A5   A   F5 G5  D5
Reaching  for   the   surface, I see you
Composição de Mikael Åkerfeldt
Colaboração e revisão:
  • Bruno Zimmermann
269 exibições
    • ½ Tom
    • A
    • Bb
    • B
    • C
    • Db
    • D
    • Eb
    • E
    • F
    • F#
    • G
    • Ab
  • Adicionar à lista

    0 comentários

    Ver todos os comentários

    Conseguiu tocar?

    0 Tocaram 0 Ainda não

    Grave um vídeo tocando Eternal Rains Will Come e nos envie!

    00:00 / 00:00
    outros vídeos desta música
    repetir qualidade Automático
    Outros vídeos desta música
    00:00 / 00:00
    Automático

    Cifra Club Pro

    Aproveite o Cifra Club com benefícios exclusivos e sem anúncios
    Cifra Club Pro
    Aproveite o Cifra Club com benefícios exclusivos e sem anúncios
    OK