Enviar cifraEntrar

Largue Tudo

Os Seminovos

Cifra: Principal
exibições 14.419
Tom: A
(intro)  A  C#m  B  D  A


         A             C#m                                     B
E |--5h7------------5-77-99--11-12-14-16-14-12-9-11--11-11-11-77---------------|
B |-----5--5-7-4/5-4--------------------------------------------4/5-4----------|
G |------------------------------------------------------------------4---------|
D |-------------------------------------------------------------------4--------|
A |--------------------------------------------------------------------3/4-44--|
E |----------------------------------------------------------------------------|


          D                            A
E |-----------------------10-10------------------------------------------------|
B |-------------------1010------10/12-10-9-10----------------------------------|
G |------------4-6-7-9-----------------------9--11-7-6/7-6---------------------|
D |-------4-5-7-------------------------------------------9-7------------------|
A |--2-4-5---------------------------------------------------------------------|
E |----------------------------------------------------------------------------|


(solo refrão)

(solo 1)            (solo 2)             (solo 3)

G |----2-4-2-|    B|-------2--|     B|----5-7-5----------------|
D |-2-4------|    G|----2-4---|     G|-4-6-----6-4-6-4---------|
                  D|-2-4------|     D|----------------6-4-6-4~-|


A
Gata, fuja do trabalho
D
Tô te esperando aqui fora
A            D           E
Vou te levar pro paraíso agora
F#m           E
O começo é um jantar a dois
D               A
Num restaurante caro
 F#m              D              E
Lagostas, trufas e o vinho mais raro


E |--12--10--|
B |---12--10-|


A
Depois que tal um seis estrelas?
D
Suíte presidencial!
A               D       E
A noite inteira de sexo animal

F#m             E
Vou tirar a sua lingerie
D                    A
Reservei um monte na Daslu
F#m
E te encher de amor,
D             E
Da boca até o coração

D                 A
Gata, largue tudo agora! (solo 1)
D                 A
Gata, largue tudo agora! (solo 2)
F#m                A        E
Quero te mostrar a vida por inteiro (solo 3)
D                  A
Mas vamos combinar primeiro
D                  A
Mas vamos combinar primeiro
D                  Bm           E
Você paga a conta, eu não tenho dinheiro

A
Gata, a gente freta um jato
D
Podemos ir até Paris
A             D              E
Ou esquiar em Aspen, como eu sempre quis
F#m              E
Que tal toda uma semana
D            A
Numa vila na Toscana?
F#m                  D              E
Eu com a minha gana, você com a sua grana

Yeah...
D                 A
Gata, largue tudo agora! (solo 1)
D                 A
Gata, largue tudo agora! (solo 2)
F#m                A        E
Antes que a rotina nos separe (solo 3)
D                  A
Deixe que o mundo pare
D                  A
Deixe que o mundo pare
D                  Bm           E
Vem, me dê a mão e a chave da Ferrari

(solo)

E |----------------------------------------------------------------------------|
B |-----3-2--------------------------------------------------------------------|
G |--2-4----4-4/2-2-------------------2----------------------------------------|
D |-----------------4/6-4-2-2/4-22-2/4-2---------------------------------------|
A |----------------------------------------------------------------------------|
E |----------------------------------------------------------------------------|


E |-----5-7-7777-5-9--12-14-12-10-9---------------------------------------------|
B |--5-7----------7----------------10-12-10--777/5-55---5---5-7-5---------------|
G |--------------------------------------------------4/6-4-6-----6-4-6-4--------|
D |---------------------------------------------------------------------6-4-6-4-|
A |-----------------------------------------------------------------------------|
E |-----------------------------------------------------------------------------|


D                 A
Gata, largue tudo agora! (solo 1)
D                 A
Gata, largue tudo agora! (solo 2)
F#m                A        E
Quem só trabalha não se realiza (solo 3)
D                  A
Eu tenho o que você precisa
D                  A
Eu tenho o que você precisa
D                  Bm            A
Todo o resto a gente bota no seu Visa
  • 1
  • 2
  • 3
  • 4
  • 5
  • 6
  • 7
  • 8
  • 9
  • 10
  • 11
  • 12
    Acordes para:
      Composição: Maurício Ricardo, arranjos Neto CastanheiraColaboração e revisão:
      • Gleno Machado
      • rob

      0 comentários

        mostrar mais comentários

        Conseguiu tocar?

        3tocaram0ainda não

        Grave um vídeo tocando Largue Tudo e mande pra gente!

        00:00 / 00:00
        outros vídeos desta música
        repetirqualidadeautomática
        • automática
        Outro vídeos desta música
          00:00 / 00:00
          automática
          • automática
          Acordes para:violão e guitarra
          dificuldadeexibiçõescontribuições
          fecharplay/pause subir/descer velocidade
            acordes
            fechar
            OK
            Feedback