Enviar cifraEntrar

Cuitelinho

Pena Branca e Xavantinho

Cifra: Principal
exibições 196.898
Tom: A
Solo Guitarra - Lá;


1|-9--10-12-7-9--10-5-2-0----9--10-12-7-9--10-5-4-7-5------|
2|-10-12-14-9-10-12-7-3-2----10-12-14-9-10-12-7-5----------|
3|---------------------------------------------------------|
4|---------------------------------------------------------|
5|---------------------------------------------------------|
6|---------------------------------------------------------|




Solo Viola Caipira;


1|-11-12-14-9--11-12-7-4-2----11-12-14-9--11-12-7-6-9-7------|
2|-12-14-16-11-12-14-9-5-4----12-14-16-11-12-14-9-7----------|
3|--------------------------------------------------8-7------|
4|-----------------------------------------------------------|
5|-----------------------------------------------------------|


         A
Cheguei na beira do porto
                    E
Onde as ondas se espáia
    A
As garça dá meia volta
                     E
E senta na beira da praia
E o cuitelinho não gosta
                     A               A E D E A
Que o botão de rosa caia, ai, ai, ai
             A
Aí quando eu vim de minha terra
                 E
Despedi da parentaia
      A
Eu entrei no Mato Grosso
                    E
Dei em terras paraguaia
Lá tinha revolução
                   A              A E D E A
Enfrentei fortes bataia, ai, ai, ai
     A
(*)A tua saudade corta
              E
Como aço de navaia
      A
O coração fica aflito
                   E
Bate uma, a outra faia
Os óio se enche d`água
                       A                A E D E A (bis) (*)
Que até a vista se atrapaia, ai, ai, ai
  • 1
  • 2
  • 3
  • 4
  • 5
  • 6
  • 7
  • 8
  • 9
  • 10
  • 11
  • 12
    Acordes para:

      0 comentários

        mostrar mais comentários

        Conseguiu tocar?

        8tocaram1ainda não

        Grave um vídeo tocando Cuitelinho e mande pra gente!

        00:00 / 00:00
        outros vídeos desta música
        repetirqualidadeautomática
        • automática
        Outro vídeos desta música
          00:00 / 00:00
          automática
          • automática
          Acordes para:violão e guitarra
          dificuldadeexibiçõescontribuições
          1 versão de Tab de gaitaexibiçõescontribuições
          1 versão de Partiturasformatodownloadscontribuição
          fecharplay/pause subir/descer velocidade
            acordes
            fechar
            OK
            Feedback