Cifra Club

Aprenda

Friends Dont Let Friends Dial Drunk

Plain White T's

Cifra: Principal (violão e guitarra)
tom: E
Tabber: stringping
Tuning: Standard 440 (EADGBe)

Guitar 1
========

Intro
e|--------------------------------------------|
B|--------------------------------------------|
G|--------------------------------------------|
A|-2----6----7----9---------------------------|
D|-2----6----7----9---------------------------|
E|-0----4----5----7---------------------------|

Verse
e|---------------------------------------------|
B|---------------------------------------------|
G|---------------------------------------------|
A|------------------------------6--------------|
D|-2-(8x)-6-(8x)-7-(16x)-2-(8x)-4-(8x)-7-(16x)-|
E|-0------4------5-------0-------------5-------|
PM all

Pre-Chorus
e|--------------------------------------------|
B|-7----9-------------------------------------|
G|-8----9-------------------------------------|
A|-9----9-------------------------------------|
D|-6----7----2-2-2-2--------------------------|
E|-----------0-0-0-0--------------------------|
Let ring all

Chorus
e|--------------------------------------------|
B|--------------------------------------------|
G|------6-------------------------------------|
A|-2----6----7----9---------------------------|
D|-2----4----7----9---------------------------|
E|-0---------5----7---------------------------|

Bridge
e|--------------------------------------------|
B|--------------------------------------------|
G|--------------------------------------------|
A|-7--9--11--11--7--9--11--12-----------------|
D|-7--9--11--11--7--9--11--12-----------------|
E|-5--7--9---9---5--7--9---10-----------------|


Guitar 2
========

Intro
e|--------------------------------------------|
B|--------------------------------------------|
G|-11-9--11-9--11-13--11-13-------------------|
A|-9--7--9--7--9--11--9--11-------------------|
D|--------------------------------------------|
E|--------------------------------------------|

Verse
e|--------------------------------------------|
B|--------------------------------------------|
G|-x-x-9-9-x-x-9------------------------------|
A|-x-x-x-x-x-x-x------------------------------|
D|-x-x-7-7-x-x-7------------------------------|
E|-x-x-----x-x--------------------------------|
Staccato all

Pre-Chorus
e|--------------------------------------------|
B|--------------------------------------------|
G|-x-x-8-8-x-x-9-x-x-8-x-x-8--------9-9-9-9---|
A|-x-x-x-x-x-x-x-x-x-x-x-x-x--------x-x-x-x---|
D|-x-x-6-6-x-x-6-x-x-6-x-x-6--------7-7-7-7---|
E|-x-x-----x-x---x-x---x-x--------------------|

Chorus
e|--------------------------------------------|
B|--------------------------------------------|
G|------6-------------------------------------|
A|-2----6----7----9---------------------------|
D|-2----4----7----9---------------------------|
E|-0---------5----7---------------------------|

*note Guitar 2 plays more of a variation of the
 Intro riff in the chorus sections.

Bridge
e|--------------------------------------------|
B|----12-----12-----9-----9-------------------|
G|-8s9--9-8s9--9-8s9-9-8s9-9------------------|
A|--------------------------------------------|
D|--------------------------------------------|
E|--------------------------------------------|


Working on more PWT songs they'll be up soon!
Composição de Bret Epic Mazur / Tom Higgenson
1.401 exibições
    • ½ Tom
    • A
    • Bb
    • B
    • C
    • Db
    • D
    • Eb
    • E
    • F
    • F#
    • G
    • Ab
  • Adicionar à lista

    0 comentários

    Ver todos os comentários

    Conseguiu tocar?

    0 Tocaram 0 Ainda não

    Grave um vídeo tocando Friends Dont Let Friends Dial Drunk e nos envie!

    00:00 / 00:00
    outros vídeos desta música
    repetir qualidade Automático
    Outros vídeos desta música
    00:00 / 00:00
    Automático

    Cifra Club Pro

    Aproveite o Cifra Club com benefícios exclusivos e sem anúncios
    Cifra Club Pro
    Aproveite o Cifra Club com benefícios exclusivos e sem anúncios
    OK